T&P Combo
311
311T&P Combo Прислать видеоурок
311 T&P Combo
Добавлено: — , Просмотров: 294 (+1)

 
Добавить в избранное

"311"
T&P Combo

Riff 1:
   F#5              C5   C#5      E5   F5 
1|-----------------------------------------
2|-----------------------------------------
3|-----------------------------------------
4|-4-4--x-x-11-11-x-5-5--6-6--x-x-9-9--3-3-
5|-4-4--x-x--9--9-x-3-3--4-4--x-x-7-7--3-3-
6|-2-2--x------------------------------1-1-

Riff 2 (w/variations):
Just variations of (F5  - F5/E ) and (F#5  - F#5/E ).
Something like:
1|----------------------------------------------------------------------
2|----------------------------------------------------------------------
3|----------------------------------------------------------------------
4|-3-3-3-3-3-3-3-3-3-3-3-3-3-3-3-3-3-3-4-4-4-4-4-4-4-4-4-4-4-4-4-4-4-4-4
5|-3-3-3-3-3-3-3-3-3-3-3-3-3-3-3-3-3-3-4-4-4-4-4-4-4-4-4-4-4-4-4-4-4-4-4
6|-0-1-1-1-0-1-1-1-0-1-0-1-1-1-0-1-1-1-0-2-2-2-0-2-2-2-0-2-0-2-2-2-0-2-2

Riff 3:
   E9                              F9 
1|-----------------------------------
2|-7-7-7-7-7-7-7-7-7-7-7-7-7-7-7---8-
3|-7-7-7-7-7-7-7-7-7-7-7-7-7-7-7---8-
4|-6-6-6-6-6-6-6-6-6-6-6-6-6-6-6---7-
5|-7-7-7-7-7-7-7-7-7-7-7-7-7-7-7---8-
6|-----------------------------------

Riff 4:
   E9           F#5      G 
1|-------------------------------
2|-------------------------------
3|-7-7-7-7-7-7-------------------
4|-6-6-6-6-6-6--4-4-4-4--5-5-5-5-
5|-7-7-7-7-7-7--4-4-4-4--5-5-5-5-
6|-0-0-0-0-0-0--2-2-2-2--3-3-3-3-

Chorus 1a:
   N.C.                         G   E5 G5  A5 G5 E5   G5  A5 
1|----------------------------------------------------------
2|----------------------------------------------------------
3|----------------------------------------------------------
4|-------5-6-7-6-5--------------0---2--5---7--5--2-2--5---7-
5|-5-6-7-----------7-6-5--------2---2--5---7--5--2-2--5---7-
6|-----------------------7-6-5//3---0--3---5--3--0-0--3---5-

Chorus 1b:
   G  E5 G5 A5 G5 E5   G5  A5 
1|---------------------------
2|---------------------------
3|---------------------------
4|-0--2--5--7--5--2-2--5---7-
5|-2--2--5--7--5--2-2--5---7-
6|-3--0--3--5--3--0-0--3---5-

Song Structure:
Play Riff 1 over:
Play Riff 2 over:
Play Riff 3 over:
Play Riff 4 over:
Play Chorus 1a over:
Play Chorus 1b over:
Play Riff 1 over:
Play Riff 2 over:
Play Riff 3 over:
Play Riff 4 over:
Play Chorus 1a over:
Play Chorus 1b over:

Ещё песни с аккордами исполнителя/группы «311»