Transistor
311
311Transistor Прислать видеоурок
311 Transistor
Добавлено: — , Просмотров: 510 (+1)

  Добавить в избранное

"Transistor"
Transistor

NOTE: ANOTHER INTERPRETATION OF THIS SONG, AND ONE THAT I NOW THINK IS THE
RIGHT WAY TO PLAY IT, IS TO PLAY ONLY THE NOTES LISTED ON THE LOW "E"
STRING, AND NOT THE ONES ON THE "A" STRING. IN OTHER WORDS, PLAY THE
SINGLE NOTES ON THE "E" STRING INSTEAD OF THE POWER CHORDS LISTED BELOW,
BUT ONLY IN "VERSE RIFFS 1 & 2", "CHORUS RIFF 1", AND "RIFF 3". THE OTHER
RIFFS SHOULD BE PLAYED AS LISTED BELOW.

Verse Riff 1:
e---------------------------------------------------------
B---------------------------------------------------------
G---------------------------------------------------------
D---------------------------------------------------------
A--2--4--5--7--4--4----7--4--2--7b7.5---2--4--5--7--4--4--
E--0--2--3--5--2--2----5--2--0--5b5.5---0--2--3--5--2--2--

e--------------------------------------------------------
B--------------------------------------------------------
G--------------------------------------------------------
D--------------------------------------------------------
A--7--4--2--7--4--2--------------------------------------
E--5--2--0--5--2--0--------------------------------------

Verse Riff 2:
e--------------------------------------------------
B--------------------------------------------------
G--------------------------------------------------
D--------------------------------------------------
A--7--4--2--7--4--2--2--2--7--4--2--7--4--2--2--2--
E--5--2--0--5--2--0--0--0--5--2--0--5--2--0--0--0--

e-----------------------------------------------------------
B-----------------------------------------------------------
G-----------------------------------------------------------
D-----------------------------------------7--7--7-----------
A--7--4--2--7--4--2--2--2--7--4--2--7--4--5--5--5-----------
E--5--2--0--5--2--0--0--0--5--2--0--5--2--------------------

Chorus Riff 1:
e--------------------------------------------------
B--------------------------------------------------
G--------------------------------------------------
D--7--7--7--8--------------------------------------
A--5--5--5--6--6--6--6--6---6--6--8--6--4----------
E--------------4--4--4--4---4--4--6--4--2----------

Chorus Riff 2:
e---------------------------------------------------
B---------------------------------------------------
G---------------------------------------------------
D-----------7---------------------------------------
A--4--4--4--5--6--6--6--6---6--6--8--6--4-----------
E--2--2--2-----4--4--4--4---4--4--6--4--2-----------

Riff 3:
e-------------------------------------------------------------
B-------------------------------------------------------------
G-------------------------------------------------------------
D-----------------9--7----------------------------------------
A--5--5--5--5--5--7--5-------5--5--5--5--9--7--9--------------
E--3--3--3--3--3--7--5-------3--3--3--3--7--5--7--------------

Bridge:
e------------------------------------------------------------
B------------------------------------------------------------
G------------------------------------------------------------
D------------9--7--------------9--7--------------------------
A---5--5--5--7--5----5--5--5---7--5----5--5--9--7------------
E---3--3--3----------3--3--3-----------3--3--7--5------------

Reggae Part:
e---3--3--------------1--1----1--1-----------------------
B---3--3-----5--5-----1--1----1--1-----------------------
G---4--4-----5--5-----2--2----2--2-----------------------
D------------5--5----------------------------------------
A--------------------------------------------------------
E--------------------------------------------------------

Ending:
e----------------------------------------------
B----------------------------------------------
G-----------5--5-------------------------------
D---5--5----5--5---3------3-----3------3-------
A---5--5----3--3---3------3-----3------3-------
E---3--3----3--3---1--0---1--0--1--0--1--0-----

e---------------------------------------------
B---------------------------------------------
G-----------5--5------------------------------
D---5--5----5--5---3---3---3--------3---------
A---5--5----3--3---3---3---3--------3---------
E---3--3----3--3---1---1---1---0----1---------

Song Structure:
Play Verse Riff 1 over:
Play Verse Riff 2 over:
Play Chorus Riff 1 over:
Play Chorus Riff 2 over:
Play Riff 3 over:
Play Verse Riff 1 over:
Play Verse Riff 2 over:
Play Chorus Riff 1 over:
Play Chorus Riff 2 over:
Play Riff 3 over:
Play Bridge (x4)
Play Reggae Part (x4) over:
Play Ending (x2) over:

Ещё песни с аккордами исполнителя/группы «311»