Be Like That
3 Doors Down
3 Doors Down Be Like That
Добавлено: — , Просмотров: 537 (+0)

  Добавить в избранное

Be Like That

Fig#1
Play this 6 times
E|--------3-------------------------------0--------------------|
B|----------3---3--------5--------------3---3------------3-----|
G|-------------------------7---7----0---------0--------5---5---|
D|----5-------5------7-------7----2---2------------5---------5-|
A|------5----------5---5-------------------------3---3---------|
E|--3----------------------------------------------------------|
After the 6th time while he's singing "if i could be like that"
Play this. I can't tell you how many times each chord is played so
You'll have to play with the song.
Fig#2
E|----------------------------|
B|-------5----7----3----------|
G|--4----7----9----5----------|
D|--5----7----9----5----------|

Ещё песни с аккордами исполнителя/группы «3 Doors Down»