Duck And Run
3 Doors Down
3 Doors DownDuck And Run Прислать видеоурок Скачать GTP к этой песне
3 Doors Down Duck And Run
Добавлено: — , Просмотров: 447 (+0)

  Добавить в избранное

Duck And Run

4/4 time, standard tuning
.... = timing, 4 counts~ = hold/ = slide up
h = hammer onp = pull offt = tap (hammer, pull)

Intro:                                 (10's, not 1's and 0's)
e-------------------|-------------------|-------------------|-------------------|
B-------------------|-------------------|-------------------|-------------------|
G--9---9-9-9-9-9----|-12--12--11--14----|-------------------|-------------------|
D-------------------|-------------------|-10--1010101010----|--9---9--10--12----|
A--7---7-7-7-7-7----|-10--10---9--12----|-------------------|-------------------|
E-------------------|-------------------|--8---8-8-8-8-8----|--7---7---8--10----|
   .   .   .   .       .   .   .   .       .   .   .   .       .   .   .   .

Verse:
e-------------------|-------------------|
B-------------------|-------------------|
G-------------------|-------------------|
D-------------------|-------------------|
A--5h7-7-7-7-7-5----|--8----------------|
E-------------------|------7---5---7t8--|
   .   .   .   .       .   .   .   .

Chorus: (strum for spaces given)
e-------------------|-------------------|-------------------|-------------------|
B-------------------|-------------------|-------------------|-------------------|
G-------------------|-------------------|--5----------------|--4-----7----------|
D--2----------------|--5-----4----------|--5----------------|--4-----7----------|
A--2----------------|--5-----4----------|--3----------------|--2-----5----------|
E--0----------------|--3-----2----------|-------------------|-------------------|
   .   .   .   .       .   .   .   .       .   .   .   .       .   .     .   .

Interlude: (strum and scratch for spaces given)
e-------------------|-------------------|
B-------------------|-------------------|
G-------------------|--5---4---7--------|
D--2----------------|--5---4---7--------|
A--2----------------|--3---2---5--------|
E--0----------------|-------------------|(played before solo)
   .   .   .   .       .   .   .   .

Solo: (play twice over verse)
e-----------------------------------|-----------------------------------|
B-----------------------------------|-----------------------------------|
G---------12--11--12p(11)-----------|---------12--11--12p(11)-12-/(14)--|
D-/14--~------------------12--12/---|/(14)-~----------------------------|
A-----------------------------------|-----------------------------------|
E-----------------------------------|-----------------------------------|
   .       .       .       .           .       .       .       .
e-----------------------------------|-----------------------------------|
B-----------------------------------|-----------------------------------|
G-12---~--12--11--12p(11)-----------|-----------------------------------|
D-------------------------12--12/---|/(14)-~----------------------------|
A-----------------------------------|-----------------------------------|
E-----------------------------------|-----------------------------------|
   .       .       .       .           .       .       .       .

Ещё песни с аккордами исполнителя/группы «3 Doors Down»