Here Without You
3 Doors Down
3 Doors DownHere Without You Прислать видеоурок Скачать GTP к этой песне
3 Doors Down Here Without You
Добавлено: — , Просмотров: 2323 (+1)

 
Добавить в избранное

Here Without You

В opигeнaлe игpaeтcя нa пoл тoнa вышe

Intro:        Am F G 

          Am F G 
E-------------------------------|-------------|-------------|
B-------1-----0-----0---1-------|-------------|-------------|
G-----2---2-----2---------2-----|-------2-----|---------4---|
D---2-------2-----2---2---------|-----3---3---|-----5-------|
A-0-------------------------0---|---3-------3-|---5---5---5-|
E-----------------------------3-|-1-----------|-3-----------|
                                                         A hundred
          Am G 
E-------------------------------|---------------------------|
B-------1-----0-----0---1-------|-------------1-----0---1/3-|
G-----2---2-----2---------2-----|-------4-------0-----0-----|
D---2-------2-----2---2-----2-0-|-----5---5-------0---------|
A-0-----------------------------|---5-------5---------------|
E-------------------------------|-3-------------------------|
  days had made me older since the last time that I saw your pretty face
          C G 
E-------------0-------------|---------------------------|
B-------3-----------3---3/5-|-------------1-----0---1/3-|
G-----0---0-----0-----------|-------4-------0-----0-----|
D---2-------2-----2---2-----|-----5---5-------0---------|
A-3-------------------------|---5-------5---------------|
E---------------------------|-3-------------------------|
 I.m here without you baby but your still on my lonely mind
Am F G  (intro)

Am G 
A hundred days had made me older since the last time that I saw your pretty face
Am F G  (intro)

Am G A  thousand lights had made me colder and I don.t think I can look at this the same
Am F G  (intro)
Am G 
But all the miles had separate
   Am (intro) F G 
They disappeared now when I.m dreaming of your face

Chorus:        C G 
I.m here without you baby but your still on my lonely mind
 Am (intro) F G C 
I think about you baby and I dream about you all the time
C G 
I.m here without you baby but your still with me in my dreams
Am  (intro) F G 
          And tonight it.s only you and me

A Вoт Дaльшe Лyчшe Пepeйти C Пepeбopa Нa Бoй

Am C 
Everything I know, and anywhere I go 
G F 
it gets hard but it won.t take away my love
Am C 
And when the last one falls, when it.s all said and done
G F 
it get hard but it won.t take away my love

The miles just keep rolling as the people either way to say hello
I hear this life is overrated but I hope it gets better as we go
I.m here without you baby but your still on my lonely mind
I think about you baby and I dream about you all the time
I.m here without you baby but your still with me in my dreams
And tonight girl it.s only you and me
Everything I know, and anywhere I go
it gets hard but it won.t take away my love
And when the last one falls, when it.s all said and done
it get hard but it won.t take away my love
I.m here without you baby but your still on my lonely mind
I think about you baby and I dream about you all the time
I.m here without you baby but your still with me in my dreams
And tonight girl it.s only you and me
I.m here without you baby but your still on my lonely mind
I think about you baby and I dream about you all the time
I.m here without you baby but your still with me in my dreams
but tonight girl it.s only you and me

Ещё песни с аккордами исполнителя/группы «3 Doors Down»