Smack
3 Doors Down
3 Doors Down Smack
Добавлено: — , Просмотров: 525 (+0)

 
Добавить в избранное

Smack

Comments:    This is a very easy song. It's basically just power chords
the whole time. Fun song to play though.

() - Palm Mute
 / - Slide Down
 x - Percussive Note With No Pitch, Muted note

Intro:        e|------------------------------------------------------|
B|------------------------------------------------------|
G|------------------------------------------------------|
D|-(7)(7)-9-9-x-x-2-2-x-x-2-2-x-5-5-x-x-5/7-7-x-x-7-7-x-|
A|-(7)(5)-9-9-x-x-2-2-x-x-2-2-x-5-5-x-x-5/7-7-x-x-7-7-x-|
E|-(5)(5)-7-7-x-x-0-0-x-x-0-0-x-3-3-x-x-3/5-5-x-x-5-5-x-|

e|-----------------------------------------------|
B|-----------------------------------------------|
G|-----------------------------------------------|
D|-9-9-x-x-2-2-x-x-2-2-x-5-5-x-x-5/7-7-x-x-7-7-x-|
A|-9-9-x-x-2-2-x-x-2-2-x-5-5-x-x-5/7-7-x-x-7-7-x-|
E|-7-7-x-x-0-0-x-x-0-0-x-3-3-x-x-3/5-5-x-x-5-5-x-|
        Band Enters (Repeat 4x)
e|-------------------------------------------------|
B|-------------------------------------------------|
G|*-----------------------------------------------*|
D|*-9-9-x-x-2-2-x-x-2-2-x-5-5-x-x-5/7-7-x-x-7-7-x-*|
A|--9-9-x-x-2-2-x-x-2-2-x-5-5-x-x-5/7-7-x-x-7-7-x--|
E|--7-7-x-x-0-0-x-x-0-0-x-3-3-x-x-3/5-5-x-x-5-5-x--|
Pre-Verse (Repeat 2x)
e|-------------------------------------------------|
B|-------------------------------------------------|
G|*-----------(7)-7-7-7-----------(11)-11-(10)-10--|
D|*-(9)-9-9-9-(7)-7-7-7-(7)-7-7-7-(11)-11-(10)-10--|
A|--(9)-9-9-9-(5)-5-5-5-(7)-7-7-7--(9)--9--(8)--8--|
E|--(7)-7-7-7-----------(5)-5-5-5------------------|

e|---------------------------------------------|
B|---------------------------------------------|
G|------------(7)-7-7-7-----------11-11-10-10-*|
D|--(9)-9-9-9-(7)-7-7-7-(7)-7-7-7-11-11-10-10-*|
A|--(9)-9-9-9-(5)-5-5-5-(7)-7-7-7--9--9--8--8--|
E|--(7)-7-7-7-----------(5)-5-5-5--------------|
Verse - (Palm Muting For Parts - Listen To Song)
e|-------------------------------------------|
B|-------------------------------------------|
G|----------7-777777------------11-11-10-10--|
D|-9-999999-7-777777-7-777777---11-11-10-10--|
A|-9-999999-5-555555-7-777777----9--9--8--8--|
E|-7-777777----------5-555555----------------|
     ^^^^^^   ^^^^^^   ^^^^^^   ^^    ^^
e|-------------------------------------------|
B|-------------------------------------------|
G|----------7-777777------------11-11-10-10--|
D|-9-999999-7-777777-7-777777---11-11-10-10--|
A|-9-999999-5-555555-7-777777----9--9--8--8--|
E|-7-777777----------5-555555----------------|
     ^^^^^^   ^^^^^^   ^^^^^^
e|------------------------------------------------|
B|------------------------------------------------|
G|----------7-777777-----------11-11-11-10-10-10--|
D|-9-999999-7-777777-7-777777--11-11-11-10-10-10--|
A|-9-999999-5-555555-7-777777---9--9--9--8--8--8--|
E|-7-777777----------5-555555---------------------|
     ^^^^^^   ^^^^^^   ^^^^^^  ^^^^^    ^^^^^
e|--------------------------------------|
B|--------------------------------------|
G|----------7-777777------------11--10--|
D|-9-999999-7-777777-7-777777---11--10--|
A|-9-999999-5-555555-7-777777----9---8--|
E|-7-777777----------5-555555-----------|
     ^^^^^^   ^^^^^^   ^^^^^^
Chorus (Repeat 4x)
e|-----------------------------------------------|
B|-----------------------------------------------|
G|*---------------------------------------------*|
D|*-9-x-x-9-9--2-x-x-2-2--5-x-x-5-5--7-x-x-7-7--*|
A|--9-x-x-9-9--2-x-x-2-2--5-x-x-5-5--7-x-x-7-7---|
E|--7-x-x-7-7--0-x-x-0-0--3-x-x-3-3--5-x-x-5-5---|
Pre-Verse
Verse
Bridge (Repeat 4x)
e|----------------------------|
B|----------------------------|
G|*----------5------------3--*|
D|*-5/7--5/7-5---3/5--3/5-3--*|
A|--5/7--5/7-3---3/5--3/5-1---|
E|--3/5--3/5-----1/3--1/3-----|
Outro (Repeat 2x)
e|-------------------------------------------------|
B|-------------------------------------------------|
G|*-----------(7)-7-7-7-----------(11)-11-(10)-10--|
D|*-(9)-9-9-9-(7)-7-7-7-(7)-7-7-7-(11)-11-(10)-10--|
A|--(9)-9-9-9-(5)-5-5-5-(7)-7-7-7--(9)--9--(8)--8--|
E|--(7)-7-7-7-----------(5)-5-5-5------------------|

e|---------------------------------------------| -----|
B|---------------------------------------------| -----|
G|------------(7)-7-7-7-----------11-11-10-10-*| -----|
D|--(9)-9-9-9-(7)-7-7-7-(7)-7-7-7-11-11-10-10-*| --9--|
A|--(9)-9-9-9-(5)-5-5-5-(7)-7-7-7--9--9--8--8--| --9--|
E|--(7)-7-7-7-----------(5)-5-5-5--------------| --7--|
                                                 End on this chord

Chords Used:
A5  - 577xxx
B5  - x799xx or x244xx
D5  - x577xx
E5  - 022xxx
F5  - x81010xx
F#5  - x91111xx
G5  - 355xxx

Song Progression:
Intro
Verse 1 -
Chorus -
Verse 2 -
Chorus -
Bridge
Outro -

Ещё песни с аккордами исполнителя/группы «3 Doors Down»