So I Need You
3 Doors Down
3 Doors DownSo I Need You Прислать видеоурок Скачать GTP к этой песне
3 Doors Down So I Need You
Добавлено: — , Просмотров: 579 (+0)

  Добавить в избранное

Album: The Better Life
So I Need You

(acoustic)

Tuning: Standard (EADGBe)

Intro:        ------------0-0-0-0-0-0-0-0-0-0-0-0---------------|
------------3-3-3-3-3-3-3-1-1-1-1-1---------------|
--7-7-----7-0-0-0-0-0-0-0-0-0-0-0-0-4-4-----------|
--5-5-5-5-5-4-4-4-4-4-4-4-2-2-2-2-2-4-4-----------|
--7-7-7-7-7-5-5-5-5-5-5-5-3-3-3-3-3-2-2-3-2-------|
--0-0-0-0-0---------------------------------3-2---|

Verse:        ----------------------------3---3-----------------|
------------3-3-3-3-3-3-3---3---3-0-0-x-0-0-0-0---|
--7-7-----7-0-0-0-0-0-0-0-0-0-0-0-2-2-x-2-2-2-0---|
--5-5-5-5-5-4-4-4-4-4-4-4-0---0---2-2-x-2-2-2-0---|
--7-7-7-7-7-5-5-5-5-5-5-5-2---2---0-0-0-0-0-0-0---|
--0-0-0-0-0---------------3---3-------------------|
If you...
and if you...

Pre-Chorus:    --------------------------------------------------|
------0-------------7---------0-------------7-----|
------5-5---------9---9-9-----5-5---------9---9-9-|
----5-----5-----9-------9---5-----5-----9-------9-|
--3---------3/7---------7-3---------3/7---------7-|
------------------------0-----------------------0-|
or would you..
I cant get...

---------------------------|
------0-------------5------|
------5-5---------7---7-7--|
----5-----5-----7-------7--|
--3---------3/5---------5--|
------------------------0--|
and I will say

Chorus:        ------------0-0-0-0-0-0-0-0-0-0-0-0---------------|
------------3-3-3-3-3-3-3-1-1-1-1-1---------------|
--7-7-----7-0-0-0-0-0-0-0-0-0-0-0-0-4-4-----------|
--5-5-5-5-5-4-4-4-4-4-4-4-2-2-2-2-2-4-4-----------|
--7-7-7-7-7-5-5-5-5-5-5-5-3-3-3-3-3-2-2-3-2-------|
--0-0-0-0-0---------------------------------3-2---|
oh no, I...
because...
Your imitation...
it's just...

----------------------------3---3-----------------|
------------3-3-3-3-3-3-3---3---3-0-0-x-0-0-0-0---|
--7-7-----7-0-0-0-0-0-0-0-0-0-0-0-2-2-x-2-2-2-0---|
--5-5-5-5-5-4-4-4-4-4-4-4-0---0---2-2-x-2-2-2-0---|
--7-7-7-7-7-5-5-5-5-5-5-5-2---2---0-0-0-0-0-0-0---|
--0-0-0-0-0---------------3---3-------------------|
So I need you, so I need you, so I need you, so I need you

Pre-Solo:
1st guitar
----------------------------3---3-----------------|
------------3-3-3-3-3-3-3---3---3-0-0-x-0-0-0-0---|
--7-7-----7-0-0-0-0-0-0-0-0-0-0-0-2-2-x-2-2-2-0---|
--5-5-5-5-5-4-4-4-4-4-4-4-0---0---2-2-x-2-2-2-0---|
--7-7-7-7-7-5-5-5-5-5-5-5-2---2---0-0-0-0-0-0-0---|
--0-0-0-0-0---------------3---3-------------------|

Solo:        e------------------------------------------------------------------------------
B------------------------------------------------------------------------------
G----9-11-12-11-9---9-11-12-11-9---9-11-12-11-12-14-12-11-9-7------------------
D------------------------------------------------------------------------------
A------------------------------------------------------------------------------
E------------------------------------------------------------------------------

e------------------------------------------------------------------------------
B------------------------------------------------------------------------------
G-----9-11-12-11-9---9-11-12-11-9---9-11-12-11-12-14-12-11-12------------------
D------------------------------------------------------------------------------
A------------------------------------------------------------------------------
E------------------------------------------------------------------------------

Second guitar
-----------------------------------------------------------------------------
-----------------------------------------------------------------------------
--9-9-9-9-11-11-11-11-11-12-12-12-12-14-14-14-12-12-12-12-10-10-10-10-9-9-9-9
----x-x-x-x--x--x--x--x--x--x--x--x--x--x--x--x--x--x--x--x--x--x--x--x-x-x-x
-7--7-7-7-9--9--9--9--10-10-10-10-12-12-12-12-10-10-10-10-9--9--9--9--7-7-7-7
-----------------------------------------------------------------------------
I'm on my own, I'm on my own, I'm on my own

Ещё песни с аккордами исполнителя/группы «3 Doors Down»