Dance D'amour
69 Eyes
69 Eyes Dance D'amour
Добавлено: — , Просмотров: 588 (+2)

  Добавить в избранное

Dance D'amour

INTRO:        |-----------------------------------------------------------------
|-----------------------------------------------------------------
|-4-4-4-4-4-4-4-4-4-4-4-4-4-4-------------------------------------
|-----------------------------0-2-4-4-4-4-4-4-4-4-4-4-4-4-4-4-4-4-

------------------------------------------------------------------
------------------------------------------------------------------
------------------------------------------------------------------
-0-0-0-0-0-0-0-0-0-0-0-0-0-0-0-0-2-2-2-2-2-2-2-2-2-2-2-2-2-2-2-4\-

---------------------------------|
---------------------------------|
-4-4-4-4-4-4-4-4-----------------|
-----------------0-0-0-0-2-2-2-2-|

VERSE:        |-----------------------------------------------------------------
|-----------------------------------------------------------------
|-----------------------------------------------------------------
|-4-4-4-4-4-4-4-4-4-4-4-4-4-4-4-4-0-0-0-0-0-0-0-0-0-0-0-0-0-0-0-0-

-----------------------------------------------------------------
-----------------------------------------------------------------
---------------------------------4-4-4-4-4-4-4-4-4-4-6-6---------
-2-2-2-2-2-2-2-2-2-2-2-2-2-2-2-2-------------------------0-0-2-2-

-----------------------------------------------------------------
-----------------------------------------------------------------
-----------------------------------------------------------------
-4-4-4-4-4-4-4-4-4-4-4-4-4-4-4-4-0-0-0-0-0-0-0-0-0-0-0-0-0-0-0-0-

-----------------------------------------------------------------|
-----------------------------------------------------------------|
-----------------------------------------------------------------|
-2-2-2-2-2-2-2-2-2-2-2-2-2-2-2-2-0-0-0-0-0-0-0-0-2-2-2-2-2-2-2-2-|

CHORUS: (that double E octave sounds good to me)
|-------------------------------------------------------------------|
|-------------------------------------------------------------------|
|-------------7---------4-4-4-4-4-4-------------7---4-4-4-----------|
|-5-5-5-\0--0-0-0-2-2-2-------------5-5-5-\0--0-0-0-------0-0-2-2-2-| } x2

TO VERSE
|------------------------------------------------------------------
|------------------------------------------------------------------
|------------------------------------------------------------------
|-4-4-4-4-4-4-4-4-4-4-4-4-4-4-4-4-\0-0-0-0-0-0-0-0-0-0-0-0-0-0-0-0-

-------------------------------------------------------------------|
-------------------------------------------------------------------|
-----------------------------------4-4-4-4-4-4-4-4-----------------|
-2-2-2-2-2-2-2-2-2-2-2-2-2-2-2-4-\-----------------0-0-0-0-2-2-2-2-|

VERSE
CHORUS } x4

NO NAME
|------------------------------------------------------------------
|------------------------------------------------------------------
|------------------------------------------------------------------
|-6-6-6-6-6-6-6-6-6-6-6-6-6-6-6-6-\2-2-2-2-2-2-2-2-2-2-2-2-2-2-2-2-

------------------------------------------------------------------
------------------------------------------------------------------
----------------------------------6-6-6-6-6-6-6-6-----------------
-4-4-4-4-4-4-4-4-4-4-4-4-4-4-4-6-\----------------2-2-2-2-4-4-4-4-

------------------------------------------------------------------
------------------------------------------------------------------
------------------------------------------------------------------
-6-6-6-6-6-6-6-6-6-6-6-6-6-6-6-6-\2-2-2-2-2-2-2-2-2-2-2-2-2-2-2-2-

---------------------------------------------------------------------|
---------------------------------------------------------------------|
---------------------------------------------------------------------|
-4-4-4-4-4-4-4-4-4-4-4-4-4-4-4-4-\2--2-2-2-2-2-2-2-2-4-4-4-4-4-4-4-4-|

CHORUS } x4

END:        |-----------------------------------------------------------------
|-----------------------------------------------------------------
|-----------------------------------------------------------------
|-2-2-2-2-4-4-4-4-6-6-6-6-6-6-6-6-6-6-6-6-6-6-6-6-6-6-6-6-6-6-6-6-

------------------------------------------------------------------|
------------------------------------------------------------------|
------------------------------------------------------------------|
-2-2-2-2-4-4-4-4-6-6-6-6-6-6-6-6-6-6-6-6-6-6-6-6-6-6-6-6-6-6-6-6x-|

Ещё песни с аккордами исполнителя/группы «69 Eyes»