Gothic Girl
69 Eyes
69 EyesGothic Girl Прислать видеоурок Скачать GTP к этой песне
69 Eyes Gothic Girl
Добавлено: — , Просмотров: 340 (+0)

  Добавить в избранное

Gothic Girl

INTRO
1/2 2/2
|-----------------|      |---------------------------------|
|-----------------|      |---------------------------------|
|-----------------|      |-----------------1-1-1-1-1-1-1-1-|
|-1-1-1-1-1-1-1-1-| } x4 |-1-1-1-1-1-1-1-1-----------------| } x4

VERSE 1/2
|-----------------------------------------------------------------|
|-----------------------------------------------------------------|
|-----------------------------------------------------------------|
|-1-1-1-1-1-1-1-1-1-1-1-1-1-1-1-1-5-5-5-5-5-5-5-5-6-6-6-6-6-6-6-6-| } x4

VERSE 2/2
|-----------------------------------------------------------------
|-----------------------------------------------------------------
|---------------------------------6-6-6-6-6-6-6-6-6-6-6-6-6-6-6-6-
|-3-3-3-3-3-3-3-3-3-3-3-3-3-3-3-3---------------------------------

---------------------------------------------------|
---------------------------------------------------|
---------------------------------6-6-6-6-6-6-6-6-x-|
-3-3-3-3-3-3-3-3-3-3-3-3-3-3-3-3-------------------|

CHORUS
|---------------------------------|      |---------------------------------|
|---------------------------------|      |---------------------------------|
|-----------------1-1-1-1-1-1-1-1-|      |-4-4-4-4-4-4-4-4-6-6-6-6-6-6-6-6-|
|-1-1-1-1-1-1-1-1-----------------| } x3 |---------------------------------|

Ещё песни с аккордами исполнителя/группы «69 Eyes»