The Chair
69 Eyes
69 EyesThe Chair Прислать видеоурок Скачать GTP к этой песне
69 Eyes The Chair
Добавлено: — , Просмотров: 479 (+0)

  Добавить в избранное

The Chair

w = whole
h = half
q = quater
e = eight
s = sixth
x = dead note
(e) = hold note "e"
h.  = half dotted
\   = Slide Down
/   = Slide Up
e | ----- | Repeat measure(s)
B |*-----*|
G | ----- |
D | ----- |
A |*-----*|
E | ----- |
Guitar I   ( EADGBE                      ) Jazz-Clean Guitar
Guitar II  ( EADGBE                      ) Distortion Guitar
Guitar III ( Dropped-D and 1/2 Step Down ) Distortion Guitar
Bass    ( Dropped-D and 1/2 Step Down ) 4-String   Bass
Tempo : 128

Intro I
-------
    Guitar I (only)
     e e e e e e e e    (e)e e e e e e e    (e)e e e e e e e    (e)e e e e e q
e|| ----------------- | ----------------- | ----------------- | ----------------- ||
B|| ---4-----4-----5- | (5)--4---4-5-4--- | ---4-----4-----5- | (5)--4---4-5-4--- ||
G|| -----4-----4----- | -------4--------- | -----4-----4----- | -------4--------- ||
D|| -6-----6-----6--- | ---6-----------6- | (6)----6-----6--- | ---6------------- ||
A|| ----------------- | ----------------- | ----------------- | ----------------- ||
E|| ----------------- | ----------------- | ----------------- | ----------------- ||

Intro II
--------
    Guitar I
     e e e e e e e e    (e)e e e e e e e    (e)e e e e e e e    (e)e e e e e e e
e|| ----------------- | ----------------- | ----------------- | ----------------- |
B|| ---4-----4-----5- | (5)--4---4-5-4--- | ---2-----2------- | ----------------- |
G|| -----4-----4----- | -------4-------4- | -----3-----3---4- | (4)--3---3-4-3--- |
D|| -6-----6-----6--- | ---6------------- | -4-----4-----4--- | ---4---4-------4- |
A|| ----------------- | ----------------- | ----------------- | ----------------- |
E|| ----------------- | ----------------- | ----------------- | ----------------- |
 || Guitar II                                                                     |
 ||  e e h       e e     w                   e e h       e e     h       h        |
e|| -4-6-7-------6-4- | ----------------- | -------------2-4- | -7-------6------- |
B|| ----------------- | -5--------------- | ---4-5----------- | ----------------- |
G|| ----------------- | ----------------- | -6--------------- | ----------------- |
D|| ----------------- | ----------------- | ----------------- | ----------------- |
A|| ----------------- | ----------------- | ----------------- | ----------------- |
E|| ----------------- | ----------------- | ----------------- | ----------------- |
 || Guitar III                                                                    |
 ||  e e e e e e e e     e e e e e e e e     e e e e e e e e     e e e e e e e e  |
e|| ----------------- | ----------------- | ----------------- | ----------------- |
B|| ----------------- | ----------------- | ----------------- | ----------------- |
G|| ----------------- | ----------------- | ----------------- | ----------------- |
D|| ----------------- | ----------------- | ----------------- | ----------------- |
A|| -7-7-7-7-7-7-7-7- | -3-3-3-3-3-3-3-3- | -0-0-0-0-0-0-0-0- | -5-5-5-5-5-5-5-5- |
D|| -7-7-7-7-7-7-7-7- | -3-3-3-3-3-3-3-3- | -0-0-0-0-0-0-0-0- | -5-5-5-5-5-5-5-5- |
 || Bass                                                                          |
 ||  e e e e e e e e     e e e e e e e e     e e e e e e e e     e e e e e e e e  |
G|| ----------------- | ----------------- | ----------------- | ----------------- |
D|| ----------------- | ----------------- | ----------------- | ----------------- |
A|| ----------------- | ----------------- | ----------------- | ----------------- |
D|| -7-7-7-7-7-7-7-7- | -3-3-3-3-3-3-3-3- | -0-0-0-0-0-0-0-0- | -5-5-5-5-5-5-5-5- |
   Guitar I
    e e e e e e e e    (e)e e e e e e e    (e)e e e e e e e    (e)e e e e e e e
e| ----------------- | ----------------- | ----------------- | ----------------- ||
B| ---4-----4-----5- | (5)--4---4-5-4--- | ---2-----2------- | ----------------- ||
G| -----4-----4----- | -------4-------4- | -----3-----3---4- | (4)--3---3-4-3--- ||
D| -6-----6-----6--- | ---6------------- | -4-----4-----4--- | ---4---4-------4- ||
A| ----------------- | ----------------- | ----------------- | ----------------- ||
E| ----------------- | ----------------- | ----------------- | ----------------- ||
 | Guitar II                                                                     ||
 |  e e h       e e     w                   e e h       e e     h       h        ||
e| ----------------- | ----------------- | ----------------- | ----------------- ||
B| ----------------- | ----------------- | ----------------- | ----------------- ||
G| -1-3-4-------3-1- | ----------------- | ---------------1- | -4-------3------- ||
D| ----------------- | -2--------------- | ---1-2-------4--- | ----------------- ||
A| ----------------- | ----------------- | -4--------------- | ----------------- ||
E| ----------------- | ----------------- | ----------------- | ----------------- ||
 | Guitar III                                                                    ||
 |  e e e e e e e e     e e e e e e e e     e e e e e e e e     e e e e e e e e  ||
e| ----------------- | ----------------- | ----------------- | ----------------- ||
B| ----------------- | ----------------- | ----------------- | ----------------- ||
G| ----------------- | ----------------- | ----------------- | ----------------- ||
D| ----------------- | ----------------- | ----------------- | ----------------- ||
A| -7-7-7-7-7-7-7-7- | -3-3-3-3-3-3-3-3- | -0-0-0-0-0-0-0-0- | -5-5-5-5-5-5-5-5- ||
D| -7-7-7-7-7-7-7-7- | -3-3-3-3-3-3-3-3- | -0-0-0-0-0-0-0-0- | -5-5-5-5-5-5-5-5- ||
 | Bass                                                                          ||
 |  e e e e e e e e     e e e e e e e e     e e e e e e e e     e e e e e e e e  ||
G| ----------------- | ----------------- | ----------------- | ----------------- ||
D| ----------------- | ----------------- | ----------------- | ----------------- ||
A| ----------------- | ----------------- | ----------------- | ----------------- ||
D| -7-7-7-7-7-7-7-7- | -3-3-3-3-3-3-3-3- | -0-0-0-0-0-0-0-0- | -5-5-5-5-5-5-5-5- ||

1st Verse (the 2nd Verse is exactly the same)
---------
   Guitar I                                                                repeat 3 times
     e e h.             (w)                   e e h.              e e h.
e|| ----------------- | -----------------  | ----------------- | ----------------- ||
B||*----------------- | -----------------  | ----------------- | -----------------*||
G|| ----------------- | -----------------  | ----------------- | ----------------- ||
D|| -----6----------- | (6)--------------  | -----4----------- | -----2----------- ||
A||*---6------------- | -----------------  | ---4------------- | ---2-------------*||
E|| -4--------------- | -----------------  | -2--------------- | -0--------------- ||
 || Bass                                                                           ||
 ||  e e e e e e e e     e e e e e e e  e     e e e e e e e e     e e e e e e e e  ||
G||*----------------- | ------------------ | ----------------- | -----------------*||
D|| ----------------- | ------------------ | ----------------- | ----------------- ||
A|| ----------------- | ------------------ | ----------------- | ----------------- ||
D||*-7-7-7-7-7-7-7-7- | -7-7-7-7-7-9-10-9- | -5-5-5-5-5-5-5-5- | -3-3-3-3-3-3-3-3-*||

   Guitar I
     e e h.              e e h.              e e h.              e e h.
e|| ----------------- | ----------------- | ----------------- | ----------------- ||
B|| ----------------- | ----------------- | ----------------- | ----------------- ||
G|| ----------------- | ----------------- | ----------------- | ----------------- ||
D|| -----6----------- | -----2----------- | -----4----------- | -----2----------- ||
A|| ---6------------- | ---2------------- | ---4------------- | ---2------------- ||
E|| -4--------------- | -0--------------- | -2--------------- | -0--------------- ||
 || Bass                                                                          ||
 ||  e e e e e e e e     e e e e e e e e     e e e e e e e e     e e e e e e e e  ||
G|| ----------------- | ----------------- | ----------------- | ----------------- ||
D|| ----------------- | ----------------- | ----------------- | ----------------- ||
A|| ----------------- | ----------------- | ----------------- | ----------------- ||
D|| -7-7-7-7-7-7-7-7- | -3-3-3-3-3-3-3-3- | -5-5-5-5-5-5-5-5- | -3-3-3-3-3-3-3-3- ||

Pre-Chorus
----------
    Guitar III
     h      (e)e e e     w                   h      (e)e e e      e e e e q   q
e|| ----------------- | ----------------- | ----------------- || ----------------- ||
B|| ----------------- | ----------------- | ----------------- ||*-----------------*||
G|| ----------------- | ----------------- | ----------------- || ----------------- ||
D|| -2------(2)------ | -3--------------- | -2------(2)------ || -7-7-x-7-7---7--- ||
A|| -2------(2)------ | -3--------------- | -2------(2)------ ||*-7-7-x-7-7---7---*||
E|| -2------(2)2-2-2- | -3--------------- | -2------(2)2-2-2- || -7-7-x-7-7---7--- ||
 || Bass                                                                           ||
 ||  h      (e)e e e     w                   h      (e)e e e      e e e e q   q    ||
G|| ----------------- | ----------------- | ----------------- ||*-----------------*||
D|| ----------------- | ----------------- | ----------------- || ----------------- ||
A|| ----------------- | ----------------- | ----------------- || ----------------- ||
D|| -2------(2)2-2-2- | -3--------------- | -2------(2)2-2-2- ||*-7-7-x-7-7---7---*||

Chorus I
--------
    Guitar I
     e e e e e e e e    (e)e e e e e e e    (e)e e e e e e e    (e)e e e e e e e
e|| ----------------- | ----------------- | ----------------- | ----------------- ||
B||*---4-----4-----5- | (5)--4---4-5-4--- | ---2-----2------- | -----------------*||
G|| -----4-----4----- | -------4-------4- | -----3-----3---4- | (4)--3---3-4-3--- ||
D|| -6-----6-----6--- | ---6------------- | -4-----4-----4--- | ---4---4-------4- ||
A||*----------------- | ----------------- | ----------------- | -----------------*||
E|| ----------------- | ----------------- | ----------------- | ----------------- ||
 || Guitar III                                                                    ||
 ||  e e e e e e e e     e e e e e e e e     e e e e e e e e     e e e e e e e e  ||
e|| ----------------- | ----------------- | ----------------- | ----------------- ||
B||*----------------- | ----------------- | ----------------- | -----------------*||
G|| ----------------- | ----------------- | ----------------- | ----------------- ||
D|| ----------------- | ----------------- | ----------------- | ----------------- ||
A||*-7-7-7-7-7-7-7-7- | -3-3-3-3-3-3-3-3- | -0-0-0-0-0-0-0-0- | -5-5-5-5-5-5-5-5-*||
D|| -7-7-7-7-7-7-7-7- | -3-3-3-3-3-3-3-3- | -0-0-0-0-0-0-0-0- | -5-5-5-5-5-5-5-5- ||
 || Bass                                                                          ||
 ||  e e e e e e e e     e e e e e e e e     e e e e e e e e     e e e e e e e e  ||
G||*----------------- | ----------------- | ----------------- | -----------------*||
D|| ----------------- | ----------------- | ----------------- | ----------------- ||
A|| ----------------- | ----------------- | ----------------- | ----------------- ||
D||*-7-7-7-7-7-7-7-7- | -3-3-3-3-3-3-3-3- | -0-0-0-0-0-0-0-0- | -5-5-5-5-5-5-5-5-*||

Solo
----
    Guitar III
     w                   w                   h.         (e)e     w
e|| ----------------- | ----------------- | ----------------- | ----------------- |
B|| ----------------- | ----------------- | ----------------- | ----------------- |
G|| ----------------- | ----------------- | ----------------- | ----------------- |
D|| -3--------------- | -5--------------- | -2----------(2)0- | -2--------------- |
A|| -3--------------- | -5--------------- | -2----------(2)0- | -2--------------- |
D|| -3--------------- | -5--------------- | -2----------(2)0- | -2--------------- |
 || Bass                                                                          |
 ||  w                   w                   h.         (e)e     w                |
G|| ----------------- | ----------------- | ----------------- | ----------------- |
D|| ----------------- | ----------------- | ----------------- | ----------------- |
A|| ----------------- | ----------------- | ----------------- | ----------------- |
D|| -3--------------- | -5--------------- | -2----------(2)0- | -2--------------- |
   Guitar III
     w                   w                   w                    e e e e q   q
e| ----------------- | ----------------- | ----------------- || ----------------- ||
B| ----------------- | ----------------- | ----------------- ||*-----------------*||
G| ----------------- | ----------------- | ----------------- || ----------------- ||
D| -3--------------- | -5--------------- | -2--------------- || -7-7-x-7-7---7--- ||
A| -3--------------- | -5--------------- | -2--------------- ||*-7-7-x-7-7---7---*||
D| -3--------------- | -5--------------- | -2--------------- || -7-7-x-7-7---7--- ||
 | Bass                                                                           ||
 |  w                   w                   w                ||  e e e e q   q    ||
G| ----------------- | ----------------- | ----------------- ||*-----------------*||
D| ----------------- | ----------------- | ----------------- || ----------------- ||
A| ----------------- | ----------------- | ----------------- || ----------------- ||
D| -3--------------- | -5--------------- | -2--------------- ||*-7-7-x-7-7---7---*||

Interlude
---------
    Piano ( or Guitar II )
     e e h       e e     w                   e e h       e e     h       h
e|| ----------------- | ----------------- | ----------------- | ----------------- |
B|| ----------------- | ----------------- | ----------------- | ----------------- |
G|| -1-3-4-------3-1- | ----------------- | ---------------1- | -4-------3------- |
D|| ----------------- | -2--------------- | ---1-2-------4--- | ----------------- |
A|| ----------------- | ----------------- | -4--------------- | ----------------- |
E|| ----------------- | ----------------- | ----------------- | ----------------- |
 || Guitar III                                                                    |
 ||  w                  (w)                 (w)                 (w)               |
e|| ----------------- | ----------------- | ----------------- | ----------------- |
B|| ----------------- | ----------------- | ----------------- | ----------------- |
G|| ----------------- | ----------------- | ----------------- | ----------------- |
D|| -7--------------- | (7)-------------- | (7)-------------- | (7)-------------- |
A|| -7--------------- | (7)-------------- | (7)-------------- | (7)-------------- |
E|| -7--------------- | (7)-------------- | (7)-------------- | (7)-------------- |
 || Bass                                                                          |
 ||  h.          q       h       q  (q)      h.         (q)      h       h        |
G|| ----------------- | ----------------- | ----------------- | ----------------- |
D|| ----------------- | ----------------- | ----------------- | ----------------- |
A|| -------------7--- | -8-------7--(7\)- | -5----------(5\)- | ----------------- |
D|| -7--------------- | ----------------- | ----------------- | -3-------5------- |
   Piano ( or Guitar II )
    e e h       e e     w                   e e h       e e     h       h
e| ----------------- | ----------------- | ----------------- | ----------------- ||
B| ----------------- | ----------------- | ----------------- | ----------------- ||
G| -1-3-4-------3-1- | ----------------- | ---------------1- | -4-------3------- ||
D| ----------------- | -2--------------- | ---1-2-------4--- | ----------------- ||
A| ----------------- | ----------------- | -4--------------- | ----------------- ||
E| ----------------- | ----------------- | ----------------- | ----------------- ||
 | Bass                                                                          ||
 |  h.          q       h.         (q)      h.         (q)      h       h        ||
G| ----------------- | ----------------- | ----------------- | ----------------- ||
D| ----------------- | ----------------- | ----------------- | ----------------- ||
A| -------------7--- | -8----------(8\)- | -5----------(5\)- | ----------------- ||
D| -7--------------- | ----------------- | ----------------- | -3-------5------- ||

Chorus II
---------
    Piano (or Guitar II)
     e e h       e e     w                   e e h       e e     h       h
e|| ----------------- | ----------------- | ----------------- | ----------------- ||
B|| ----------------- | ----------------- | ----------------- | ----------------- ||
G|| -1-3-4-------3-1- | ----------------- | ---------------1- | -4-------3------- ||
D|| ----------------- | -2--------------- | ---1-2-------4--- | ----------------- ||
A|| ----------------- | ----------------- | -4--------------- | ----------------- ||
E|| ----------------- | ----------------- | ----------------- | ----------------- ||
 || Bass                                                                          ||
 ||  e e e e e e e e     e e e e e e e e     e e e e e e e e     e e e e e e e e  ||
G|| ----------------- | ----------------- | ----------------- | ----------------- ||
D|| ----------------- | ----------------- | ----------------- | ----------------- ||
A|| ----------------- | ----------------- | ----------------- | ----------------- ||
D|| -7-7-7-7-7-7-7-7- | -3-3-3-3-3-3-3-3- | -0-0-0-0-0-0-0-0- | -5-5-5-5-5-5-5-5- ||
    Guitar I
    e e e e e e e e     (e)e e e e e e e    (e)e e e e e e e    (e)e e e e e e e
e|| ----------------- | ----------------- | ----------------- | ----------------- ||
B|| ---4-----4-----5- | (5)--4---4-5-4--- | ---2-----2------- | ----------------- ||
G|| -----4-----4----- | -------4-------4- | -----3-----3---4- | (4)--3---3-4-3--- ||
D|| -6-----6-----6--- | ---6------------- | -4-----4-----4--- | ---4---4-------4- ||
A|| ----------------- | ----------------- | ----------------- | ----------------- ||
E|| ----------------- | ----------------- | ----------------- | ----------------- ||
 || Piano ( or Guitar II )                                                        ||
 ||  e e h       e e     w                   e e h       e e     h       h        ||
e|| ----------------- | ----------------- | ----------------- | ----------------- ||
B|| ----------------- | ----------------- | ----------------- | ----------------- ||
G|| -1-3-4-------3-1- | ----------------- | ---------------1- | -4-------3------- ||
D|| ----------------- | -2--------------- | ---1-2-------4--- | ----------------- ||
A|| ----------------- | ----------------- | -4--------------- | ----------------- ||
E|| ----------------- | ----------------- | ----------------- | ----------------- ||
 || Bass                                                                          ||
 ||  e e e e e e e e     e e e e e e e e     e e e e e e e e     e e e e e e e e  ||
G|| ----------------- | ----------------- | ----------------- | ----------------- ||
D|| ----------------- | ----------------- | ----------------- | ----------------- ||
A|| ----------------- | ----------------- | ----------------- | ----------------- ||
D|| -7-7-7-7-7-7-7-7- | -3-3-3-3-3-3-3-3- | -0-0-0-0-0-0-0-0- | -5-5-5-5-5-5-5-5- ||
    Guitar I                                                              repeat 3 times
     e e e e e e e e    (e)e e e e e e e    (e)e e e e e e e    (e)e e e e e e e
e|| ----------------- | ----------------- | ----------------- | ----------------- ||
B||*---4-----4-----5- | (5)--4---4-5-4--- | ---2-----2------- | -----------------*||
G|| -----4-----4----- | -------4-------4- | -----3-----3---4- | (4)--3---3-4-3--- ||
D|| -6-----6-----6--- | ---6------------- | -4-----4-----4--- | ---4---4-------4- ||
A||*----------------- | ----------------- | ----------------- | -----------------*||
E|| ----------------- | ----------------- | ----------------- | ----------------- ||
 || Piano ( or Guitar II )                                                        ||
 ||  e e h       e e     w                   e e h       e e     h       h        ||
e|| ----------------- | ----------------- | ----------------- | ----------------- ||
B|| ----------------- | ----------------- | ----------------- | -----------------*||
G|| -1-3-4-------3-1- | ----------------- | ---------------1- | -4-------3------- ||
D|| ----------------- | -2--------------- | ---1-2-------4--- | ----------------- ||
A|| ----------------- | ----------------- | -4--------------- | -----------------*||
E|| ----------------- | ----------------- | ----------------- | ----------------- ||
 || Guitar III                                                                    ||
 ||  e e e e e e e e     e e e e e e e e     e e e e e e e e     e e e e e e e e  ||
e|| ----------------- | ----------------- | ----------------- | ----------------- ||
B||*----------------- | ----------------- | ----------------- | -----------------*||
G|| ----------------- | ----------------- | ----------------- | ----------------- ||
D|| ----------------- | ----------------- | ----------------- | ----------------- ||
A||*-7-7-7-7-7-7-7-7- | -3-3-3-3-3-3-3-3- | -0-0-0-0-0-0-0-0- | -5-5-5-5-5-5-5-5-*||
D|| -7-7-7-7-7-7-7-7- | -3-3-3-3-3-3-3-3- | -0-0-0-0-0-0-0-0- | -5-5-5-5-5-5-5-5- ||
 || Bass                                                                          ||
 ||  e e e e e e e e     e e e e e e e e     e e e e e e e e     e e e e e e e e  ||
G||*----------------- | ----------------- | ----------------- | -----------------*||
D|| ----------------- | ----------------- | ----------------- | ----------------- ||
A|| ----------------- | ----------------- | ----------------- | ----------------- ||
D||*-7-7-7-7-7-7-7-7- | -3-3-3-3-3-3-3-3- | -0-0-0-0-0-0-0-0- | -5-5-5-5-5-5-5-5-*||
  Guitar I
     e e e e e e e e    (e)e e e e e e e    (e)e e e e e e e    (e)e e e e e e e
e|| ----------------- | ----------------- | ----------------- | ----------------- ||
B||*---4-----4-----5- | (5)--4---4-5-4--- | ---2-----2------- | -----------------*||
G|| -----4-----4----- | -------4-------4- | -----3-----3---4- | (4)--3---3-4-3--- ||
D|| -6-----6-----6--- | ---6------------- | -4-----4-----4--- | ---4---4-------4- ||
A||*----------------- | ----------------- | ----------------- | -----------------*||
E|| ----------------- | ----------------- | ----------------- | ----------------- ||
 || Guitar II                                                                     ||
 ||  e e h       e e     w                   e e h       e e     h       h        ||
e|| -4-6-7-------6-4- | ----------------- | -------------2-4- | -7-------6------- ||
B||*----------------- | -5--------------- | ---4-5----------- | -----------------*||
G|| ----------------- | ----------------- | -6--------------- | ----------------- ||
D|| ----------------- | ----------------- | ----------------- | ----------------- ||
A||*----------------- | ----------------- | ----------------- | -----------------*||
E|| ----------------- | ----------------- | ----------------- | ----------------- ||
 || Guitar III                                                                    ||
 ||  e e e e e e e e     e e e e e e e e     e e e e e e e e     e e e e e e e e  ||
e|| ----------------- | ----------------- | ----------------- | ----------------- ||
B||*----------------- | ----------------- | ----------------- | -----------------*||
G|| ----------------- | ----------------- | ----------------- | ----------------- ||
D|| ----------------- | ----------------- | ----------------- | ----------------- ||
A||*-7-7-7-7-7-7-7-7- | -3-3-3-3-3-3-3-3- | -0-0-0-0-0-0-0-0- | -5-5-5-5-5-5-5-5-*||
D|| -7-7-7-7-7-7-7-7- | -3-3-3-3-3-3-3-3- | -0-0-0-0-0-0-0-0- | -5-5-5-5-5-5-5-5- ||
 || Bass                                                                          ||
 ||  e e e e e e e e     e e e e e e e e     e e e e e e e e     e e e e e e e e  ||
G||*----------------- | ----------------- | ----------------- | -----------------*||
D|| ----------------- | ----------------- | ----------------- | ----------------- ||
A|| ----------------- | ----------------- | ----------------- | ----------------- ||
D||*-7-7-7-7-7-7-7-7- | -3-3-3-3-3-3-3-3- | -0-0-0-0-0-0-0-0- | -5-5-5-5-5-5-5-5-*||

Outro
-----
    Guitar III
     w
e|| ----------------- ||
B|| ----------------- ||
G|| ----------------- ||
D|| -7--------------- ||
A|| -7--------------- ||
E|| -7--------------- ||
 || Bass              ||
 ||  w                ||
G|| ----------------- ||
D|| ----------------- ||
A|| ----------------- ||
E|| -7--------------- ||

Ещё песни с аккордами исполнителя/группы «69 Eyes»