Убегаем, Догоняют
7-Б
7-БУбегаем, Догоняют Прислать видеоурок
7-Б Убегаем, Догоняют
Добавлено: — , Просмотров: 385 (+0)

  Добавить в избранное

Убегаем, Догоняют

Вступление:    E|---------------------------------------
B|---------------------------------------
G|---5---5.7.8.5-----5---5-.7.8.5--------
D|-5---5---------------5---5-------------
A|---------------------------------------
E|---------------------------------------

-----------------------------------------
-----------------------------------------
----5---5.7.8.5-----5---5.--7.8.5--------
-6----6-----------6---6------------------
-----------------------------------------
-----------------------------------------

-----------------------------------------
-----------6--4--3--------------6--4--3--
---3---3.-.-.---------3---3.--.-.--------
-3---3--------------3---3----------------
-----------------------------------------
-----------------------------------------

-----------------------------------------
-----------------------------------------
---5---5.7.8.5-----5---5.--7.8.5------5--
-5---5-----------5---5-------------5-----
-----------------------------------------
-----------------------------------------

A вoт чтo игpaeтcя в кyплeтe:
E|---------------------------------------
B|---------------------------------------
G|---5---------5---5.7.8.5-------5-------
D|-5---------5---5-------------6---------
A|---------------------------------------
E|---------------------------------------

-----------------------------------------
---------------------------------6--4--3-
---5---5.7.8.5-----3------3---3.--.------
-6---6-----------3------3---3------------
-----------------------------------------
-----------------------------------------

-----------------------------------------
-----------------------------------------
---5---5.7.8.5------5---5.7.8.5----------
-5---5------------5---5------------------
-----------------------------------------
-----------------------------------------

Ещё песни с аккордами исполнителя/группы «7-Б»