Lake of fire
7 раса
7 раса Lake of fire
Добавлено: — , Просмотров: 348 (+0)

  Добавить в избранное

Lake of fire

------3---------3---------------------------------------
--2-3---3--6b7------6-----------------------------------
----------------------5-3-------------------------------
--------------------------5-3----------------------3-5--
------------------------------5-4-3----------3-4-5------
------------------------------------6-3----6------------

--------------------------------------------------------
--3b4---------------6~----6~----------------------------
--3b4-------(0)-5/7----7~----7\5--3---------------------
-------5----------------------------5-------0-3---3-----
-----------------------------------------/5-----5---5---
--------------------------------------------------------

-------------------------------3------------------------
--------------------6~------/3---3-7-3------------------
----------------5/7----7\--------------3-5--------------
-------------------------------------------3---5--------
--3-----------------------------------------------------
----6-3-3-3----------------------------------3----------

--------------------------------------------------------
--3b4------3b4-----3b4----------------------------------
--3b4------3b4-----3b4----------------------------------
------5-5------5-------5-3------------------------3-----
---------------------------5-4-3------------3-4-5-------
---------------------------------6-3----3-6-------------

----------------------
----------------------
------(3)-----(4)-----
--3h5-----(3)-----5---
----------------------
----------------------

Ещё песни с аккордами исполнителя/группы «7 раса»