В поисках
7 раса
7 расаВ поисках Прислать видеоурок
7 раса В поисках
Добавлено: — , Просмотров: 487 (+0)

  Добавить в избранное

В поисках

*вступление
e|--------------------------------
B|--------------------------------
G|--------------------------------
D|--------------------------------
A|--------------------------------
D|-4------4-7-0-----4------4-7-0--

*вступление (аккорд)
e|-4-----------------
B|-7-----------------
G|-6---6-7-6--------- (аккорд проигрывется, но как... вам решать)
D|-4-0---------------
A|-4-----------------
D|-4-----------------

*(В поисках рая!!!)
*проигрыш/припев (Я знал ваши миры...)
e|-------------------------------
B|-------------------------------
G|-6--6-6----------9-9-9-9-------
D|-4--4-4--0--0--0---------------
A|-4--4-4--0--0--0-7-7-7-7-------
D|-4--4-4--0--0--0---------------

*проигрыш/припев (...твоих рай...)
e|--------------------------------
B|--------------------------------
G|-9--9-9--9-9-7-7-7-7-7-7-7------
D|-7--7-7--7-7--------------------
A|-7--7-7--7-7-5-5-5-5-5-5-5------
D|-7--7-7--7-7--------------------

*проигрыш перед первым куплетом
e|------------------------------------
B|------------------------------------
G|---6-6-6-6-6-6-6---6-6-6-6-6-6-6----
D|---4-4-4-4-4-4-4---4-4-4-4-4-4-4----
A|-4-4-4-4-4-4-4-4-0-4-4-4-4-4-4-4----
D|-4-4-4-4-4-4-4-4-0-4-4-4-4-4-4-4----

* куплет (Земные радости меряя золотом…)
e|-----------------------------------
B|-----------------------------------
G|-----------------------------------
D|-4-5-5-4-5-5-4-5-5-4-5-5-4-5-5-4---
A|-----------------------------------
D|-----------------------------------
**************************

*куплет (…известных металлов…)
e|---------------------
B|---------------------
G|------3--4/3---3-----
D|--4/5--4----4---4----
A|---------------------
D|---------------------

*предприпев (Тратя на это время…)
e|-----------------------
B|-----------------------
G|-----3-3---4~4~4~4~4~--
D|-----4--4--4-4-4-4-4---
A|-----------------------
D|-----------------------

*припев
*куплет
*предприпев
*припев

*(..РАЙ!!!)
e|----------------------------------------------------------------
B|----------------------------------------------------------------
G|-6-6-6-6----------6-6-6-6----------6-6-6-6-----6-6-6-6-6/9------
D|-4-4-4-4-0----7-6-4-4-4-4-0----7-6-4-4-4-4-0---4-4-4-4-4/7------
A|-4-4-4-4-0--------4-4-4-4-0--------4-4-4-4-0---4-4-4-4-4/7------
D|-4-4-4-4-0--------4-4-4-4-0--------4-4-4-4-0---4-4-4-4-4/7------

*(Ведь рай внутри тебя рай в тебе...)
e|------------------------
B|------------------------
G|-6----9----9----7-------
D|-4---------7------------
A|-4----7----7----5-------
D|-4---------7------------

*(Страх смех смерть и чья-то боль...)
e|----------------------
B|----------------------
G|-6---------9----7-----
D|-4----0----7----------
A|-4----0----7----5-----
D|-4----0----7----------

Вот так.

Ещё песни с аккордами исполнителя/группы «7 раса»