Первый Круг
7 раса
7 расаПервый Круг Прислать видеоурок
7 раса Первый Круг
Добавлено: — , Просмотров: 484 (+1)

  Добавить в избранное

Первый Круг

*вступление
e|-----------------------------------------
B|-----------------------------------------
G|---------10--9-9-9------ ---10--9-9-9----
D|-----------------------------------------
A|--5-6-6-0--8--7-7-7--5-6-6-0--8--7-7-7---
D|--5-6-6-0-------------5-6-6-0------------

e|-------------------------------
B|-------------------------------
G|-------------------------------
D|-------------------------------
A|-5-6-6-0-8-7-4-5---8-7-4-5-----
D|-5-6-6-0--------0---------0----

*куплет(Свобода-миф, система права...)
e|----------------------------------------------------
B|----------------------------------------------------
G|-10-9--6-6---10-9--12-12---10-9--6-6----10-9--12-12-
D|----------------------------------------------------
A|--8-7--4-4----8-7--10-10----8-7--4-4-----8-7--10-10-
D|----------------------------------------------------

*куплет(Столько лет меня так верно ждёт...)
e|-------------------------------------
B|-------------------------------------
G|--14-14-10--14-14-10-9-7---7-9-10-7--
D|-------------------------------------
A|--12-12-8---12-12--8-7-5---5-7--8-5--
D|-------------------------------------

*пред препев(А в царстве мертвых следы живых...)
e|---------------------------------
B|---------------------------------
G|---------------------------------
D|-0--0----------------------------
A|-0--0-8-8-8-7-7-7-4-4-4-5-5-5----
D|-0--0----------------------------
********************

*припев(ты не оставишь меня здесь ничем...)
e|-------------------------------------------------------
B|-------------------------------------------------------
G|-------------------------------------------------------
D|-------------------------------------------------------
A|-0--0-3-2-0---0-0-0-3-2-0---0--0-3-2-0---0-0-0-3-2```--
D|-0--0-3-2-0---0-0-0-3-2-0---0--0-3-2-0---0-0-0-3-2```--

*припев(туда где я снова всех люблю, я опять свободен...)
e|-----------------------------------------------
B|-----------------------------------------------
G|--------------------10-10/9-9-9-9--5--5-4--5-5-
D|--7------7/10-----0----------------3--3-2--3-3-
A|--5------5/8------0--8--8/7-7-7-7--3--3-2--3-3-
D|--5------5/8------0----------------3--3-2--3-3-

*припев(мне осталось сделать...)
e|----------------
B|----------------
G|----------------
D|-7--7-10-10-10--
A|-5--5-8--8--8---
D|-5--5-8--8--8---

*куплет
*пред припев
*припев

*(самым добрым отзывчивым...)
e|-----------------------------------------------------------------
B|-----------------------------------------------------------------
G|-----------------------------------------------------------------
D|-----------------------------------------------------------------
A|-----------------------------------------------------------------
D|-0--0-0-3-2-0-3---0-0-0-3-2-0-3-0--0-0-3-2-0-3---0-0-0-3-2-0-3-0-
*******************************************************************

*проигрыш
e|-----------------------------------------------
B|-----------------------------------------------
G|-----------------------------------------------
D|-----------------------------------------------
A|---5-5-5---3-3-3---2-2-2-----------------------
D|-0------0------0-------0-3-3-3-0-3-0-5-6-6-----

* концовка
e|---------------------------------------
B|---------------------------------------
G|----------10--9-9-9---------10--9-9-9--
D|---------------------------------------
A|--5-6-6-0--8--7-7-7--5-6-6-0--8--7-7-7-
D|--5-6-6-0------------5-6-6-0-----------

e|----------------------------------------
B|----------------------------------------
G|----------10-9-6--6---------10-9-6--6---
D|----------------------------------------
A|--5-6-6-0--8-7-4--4--5-6-6-0--8-7-4--4--
D|--5-6-6-0-----------5-6-6-0-------------

e|------------------------------------
B|------------------------------------
G|-----------7-7-7------------7-7-7---
D|-----------7-7-7------------7-7-7---
A|--5-6-6-0--5-5-5---5-6-6-0--5-5-5---
D|--5-6-6-0----------5-6-6-0----------

Вот так.

Ещё песни с аккордами исполнителя/группы «7 раса»