Смерть Моего Тела
7 раса
7 расаСмерть Моего Тела Прислать видеоурок
7 раса Смерть Моего Тела
Добавлено: — , Просмотров: 326 (+0)

  Добавить в избранное

Смерть Моего Тела

*вступление
e|--------------------
B|--------------------
G|--------------------
D|-4----5--9----7-----
A|-2----3--7----5-----
D|-2----3--7----5-----

e|-----------------------------------------------------
B|-----------------------------------------------------
G|-----------------------------------------------------
D|-----------------------------------------------------
A|--0/1-1-1---0/1-1-1--1-2----5/7-7-7---5/7-7-7--7-5---
D|--0/1-1-1---0/1-1-1--1-2----5/7-7-7---5/7-7-7--7-5---

*куплет (Меня не станет утром...)
e|------------------------------------
B|------------------------------------
G|------------------------------------
D|-----4-5-4----------9-10-9----------
A|---2-------2------7--------7--------
D|-2-----------2--7------------7------

*проигрышь
e|-------------------------
B|-------------------------
G|-------------------------
D|-------------------------
A|-------------------------
D|-1/0--1-3-0-1/0--1/0-----
***************************

*припев (Жаль что не можеть петь...)
e|---------------------
B|---------------------
G|-6------11------7----
D|-4------9-------5----
A|-4------9-------5----
D|-4------9-------5----

*проигры в припеве (Тело мое что станет гнилью)
e|--------------------------
B|--------------------------
G|--------------------------
D|--------------------------
A|-1/0--1-3-0-1/0--1/0------
D|-1/0--1-3-0-1/0--1/0------

*куплет
*проигрыш
*припев

*куплет «2» (Когда октябрь своё возьмет...)
*пригрыш «2»
e|---------------------------------
B|---------------------------------
G|---------------------------------
D|-----7-----7-----7-----9-9-9-9---
A|---9-----9-----9-----9-----------
D|-7-----7-----7-----7-------------
*****************
*аккорды под проигрыш «2»
e|-----------------------
B|-----------------------
G|-6----7-----11-----7---
D|-4----5-----9------5---
A|-4----5-----9------5---
D|-4----5-----9------5---

*(Моя любовь моя тоска…)
e|--------------
B|--------------
G|--------------
D|-5-5-5-5-5----
A|-5-5-5-5-5----
D|-5-5-5-5-5----

*(Я жду твоих объятий откровений...)
e|------------------------
B|-3----7-----12----6-----
G|-2----6-----11----5-----
D|-0----4-----9-----3-----
A|-0----4-----9-----3-----
D|-0----4-----9-----3-----

*припев, но без слов

Вот так.

Ещё песни с аккордами исполнителя/группы «7 раса»