Чужими глазами
7 раса
7 расаЧужими глазами Прислать видеоурок
7 раса Чужими глазами
Добавлено: — , Просмотров: 354 (+0)

  Добавить в избранное

Чужими глазами

Подбор идёт на аккустике.
Есть ошибки, но не будте к ним так строги. Спасиба.

*вступление
e|-------------------------------------------
B|-------------------------------------------
G|-14--13--9---10----14---16---9---10--------
D|-------------------------------------------
A|-12--11--7---8-----12---14---7---8---------
D|-------------------------------------------

*куплет
(Все твои 16 лет твоя густая кровь...)
e|----------------------------------------------------------------------------------
B|----------------------------------------------------------------------------------
G|--------14--------13---------9------10-----------14-------16--------9-----10------
D|-----12---------11----------7------8-----------12-------14---------7-----8--------
A|--12---------11------11---7------8----8----12--------14------14--7-----8----8-----
D|-0----------0------------0------0---------0---------0-----------0-----0-----------

# на аккустике звучит боем на этих аккордах
e|-----------------------------------------------------------
B|-----------------------------------------------------------
G|-14----13------9------10-----14-----16-----9------10-------
D|-----------------------------------------------------------
A|-12----11------7------8------12-----14-----7------8--------
D|-----------------------------------------------------------

*куплет«1»
(Мне как в горле...)
e|------------------
B|------------------
G|-5--------4-------
D|-3--------2-------
A|-3--------2-------
D|-3--------2-------

*куплет

*куплет«2»
(всем В твоих больших глазах что будут знать…)
e|-------------------------
B|-------------------------
G|-5----4----5----4--7-----
D|-3----2----3----2--5-----
A|-3----2----3----2--5-----
D|-3----2----3----2--5-----

*припев
(Видеть мир чужими глазами…)
e|--------------------------------------
B|--------------------------------------
G|-----10---10------9-----9----7---5----
D|-----------------------------5---3----
A|-----8----8-------7-----7----5---3----
D|-0----0-0-----0-----0-0------5---3----

*куплет
*куплет«2»
*припев

* (Боль со мной всегда со мной…)
e|--7---3---7---3----7---3---2---3---
B|--10--6---10--6----10--6---5---6---
G|--9---5---9---5----9---5---4---5---
D|--7---3---7---3----7---3---2---3---
A|--7---3---7---3----7---3---2---3---
D|--7---3---7---3----7---3---2---3---

*(За… Твои глаза…)
e|-----------------------
B|-----------------------
G|-10---5-7-9---5--10----
D|-----------------------
A|-----------------------
D|-----------------------

*(…свет и радость первых лет…)
e|-------------------------------------------------------
B|-------------------------------------------------------
G|-10-----3-------10------3------10----------------------
D|-8------0-------8-------0------8-----------------0-----
A|-8------0-------8-------0------8------7-7-7-7-7--0-----
D|-8------0-------8-------0------8------7-7-7-7-7--0-----

Вот так

Ещё песни с аккордами исполнителя/группы «7 раса»