Чёрная Весна
7 раса
7 расаЧёрная Весна Прислать видеоурок
7 раса Чёрная Весна
Добавлено: — , Просмотров: 468 (+0)

  Добавить в избранное

Чёрная Весна

Табы даны смазанно, без маленьких ньюансов и с ошибками.
Надеюсь что вы сами сможите определить ньюансы (переборы,
ритм, отпускание и прижимание одиночных струн во время
проигрывание аккордов) и найти ошибки.

(подборка идёт на аккустике и иногда включает в себя
партии двух гитар сразу, преврашая их в одну)

*вступление
e|------------------------------
B|------------------------------
G|---6---6-6--6/10----10/6---6--
D|------------------------------
A|---4---4-4--4/8-8--8-8/4---4--
D|------------------------------

*проигрыш/припев (Та твоя весна где черный снег и грязь...)
e|-------------------------------------------
B|-------------------------------------------
G|--6--6----5----9----2--2--9-9-9-9/5-5-5-5--
D|--4--4----3----7----0--0--7-7-7-7/3-3-3-3--
A|--4--4----3----7----0--0--7-7-7-7/3-3-3-3--
D|--4--4----3----7----0--0--7-7-7-7/3-3-3-3--

*вступоение перед куплетом
e|---------------------------------------------------------
B|---------------------------------------------------------
G|---------------------------------------------------------
D|----------------------6-4-3-4------------------------0-6-
A|--4--4-----3-----7--0---------4--4------3-----7--0-------
D|--4--4-----3-----7--0---------4--4------3-----7--0-------
*************** ***************
*куплет(Ты один и только плачет март...)
e|------------------------------
B|------------------------------
G|-6-6----9-----6--9----6--9---- (идёт перебором)
D|-6-6----9-----6--9----6--9----
A|-4-4----7-----4--7----4--7----
D|-4-4----7-----4--7----4--7----

*куплет(Что все пройдет Ты снова станешь...)
e|-------------------
B|-------------------
G|-9--11--11/12------
D|-7--9----9/10------
A|-7--9----9/10------
D|-7--9----9/10------

*куплет(...сильным Кому-то очень нужным Ну чем тебя взяла…)
e|-----------------------------------------
B|-----------------------------------------
G|-----------------------------------------
D|-4-4-6/4----0-0-6/7--7-7-9/7--9-9-11/9---
A|-4-4-4------0-0-0----7-7-7----9-9-9------
D|-4-4-4------0-0-0----7-7-7----9-9-9------

*припев
* вступоение перед куплетом
*куплет
*припев

*проигрыш/(Чем весна...)
e|-------------------
B|-------------------
G|-5-5-5-5-5-5-5-5-5-
D|-3-3-3-3-3-3-3-3-3-
A|-3-3-3-3-3-3-3-3-3-
D|-3-3-3-3-3-3-3-3-3-

(...таких как мы согреешь…)
e|-----------------
B|-----------------
G|-----------------
D|-----------------
A|-8-8-8-8-4-4-7-7-
D|-8-8-8-8-4-4-7-7-

(е...)
e|----------------------
B|----------------------
G|----------------------
D|----------------------
A|-4-4--7-7--4-4--7-7---
D|-4-4--7-7--4-4--7-7---

Вот так.

Ещё песни с аккордами исполнителя/группы «7 раса»