Behind Blue Eyes
A-Ha
A-Ha Behind Blue Eyes
Добавлено: — , Просмотров: 247 (+0)

  Добавить в избранное

Behind Blue Eyes

Пoдбиpaл дoлгo и мyчитeльнo, зaтo этo - пpaвильный вapиaнт.

1I------------------|-------------------------|--0-----------------------|
2I------------------|----------------0--------|-----0--------0-----0-----|
3I------------------|-----------2-------2-----|--------2--------2--------|
4I------------------|--------2-------------2--|-----------2-----------2--|
5I------------------|-----2-------------------|--------------------------|
6I------------------|--0----------------------|--------------------------|

1I--------------------------|-----------0--------------|
2I-----------0--------------|--------------0-----------|
3I--------2-----2-----------|--------2--------2--------|
4I-----2-----------2-----2--|-----2--------------2-----|
5I--2-----------------2-----|--2--------------------2--|
6I--------------------------|--------------------------|

1I-----------0--------------|-----------3--------------|
2I--------------0-----------|--------0-----3--0-----0--|
3I--------0--------0-----0--|--------------------0-----|
4I--------------------2-----|-----0--------------------|
5I-----2--------------------|--------------------------|
6I--0-----------------------|--3-----------------------|

1I-----------2--------------|-----3--------2-----------|
2I--------3-----3-----------|--3-----3--------3--------|
3I-----2-----------2-----2--|-----------2--------2-----|
4I--0-----------------4-----|-----------------------0--|
5I--------------------------|--------------------------|
6I--------------------------|--------------------------|

1I-----------0--------------|-----------0--------------|
2I--------3-----3--1--------|--------3-----3--1--------|
3I-----0--------------0--2--|-----0--------------0--2--|
4I--------------------------|--------------------------|
5I--3-----------------------|--3-----------------------|
6I--------------------------|--------------------------|

1I-----------0--------------|-----------0--------------|
2I--------0-----0-----------|--------0-----0-----------|
3I-----------------2-----2--|-----------------2-----2--|
4I-----2--------------2-----|-----2--------------2-----|
5I--0-----------------------|--0-----------------------|
6I--------------------------|--------------------------|

1I-----------0--------------|-----------3--------------|
2I--------------0-----------|--------0-----3--0-----0--|
3I--------0--------0-----0--|--------------------0-----|
4I--------------------2-----|-----0--------------------|
5I-----2--------------------|--------------------------|
6I--0-----------------------|--3-----------------------|

1I-----------2--------------|-----3--------2-----------|
2I--------3-----3-----------|--3-----3--------3--------|
3I-----2-----------2-----2--|-----------2--------2-----|
4I--0-----------------4-----|-----------------------0--|
5I--------------------------|--------------------------|
6I--------------------------|--------------------------|

1I-----------0--------------|-----------0--------------|--0----------------------|
2I--------3-----3--1--------|--------3-----3--1--------|--0----------------------|
3I-----0--------------0--2--|-----0--------------0--2--|-------------------------|
4I--------------------------|--------------------------|--2----------------------|
5I--3-----------------------|--3-----------------------|--0----0--0--0--0--0--0--|
6I--------------------------|--------------------------|-------------------------|

1I--0---0---0------0----0----|--0--------------0-0-0--|-----------------------|
2I--0-0-0-0-0-0-0--0----0----|--1--------------1-1-1--|--3---------3----3--3--|
3I---------------------------|--0--------------0-0-0--|--2---------2----2--2--|
4I--2-2-2-2-2-2-2--2----2----|--2----2----2-----------|--4----0----4----4--4--|
5I---------------------------|------------------------|--5---------5----5--5--|
6I---------------------------|------------------------|-----------------------|

1I----------------------|--------------------------|--0--------------0-0-0--|
2I--3----3----3----3----|--3-3-3-3-3--3--3----3----|--1--------------1-1-1--|
3I--4----4----4----4----|--4-4-4-4-4--4--4----4----|--0--------------0-0-0--|
4I--5----5----5----5----|--5-5-5-5-5--5--5----5----|--2----2----2-----------|
5I--5----5----5----5----|--5-5-5-5-5--5--5----5----|------------------------|
6I----------------------|--------------------------|------------------------|

1I-----------------------|--0---------------------|--0---0---0------0----0----|
2I--3---------3----3--3--|--0---------------------|--0-0-0-0-0-0-0--0----0----|
3I--2---------2----2--2--|--1---------------------|--1-1-1-1-1-1-1--1----1----|
4I--4----0----4----4--4--|--2----2----2--2--2--2--|---------------------------|
5I--5---------5----5--5--|------------------------|---------------------------|
6I-----------------------|--0----0----0--0--0--0--|--0-0-0-0-0-0-0--0----0----|

I------------------------|----------------------|--0----0----0----0----|
I--3--------------3-3-3--|--3----3----3----3----|--1----1----1----1----|
I--4--------------4-4-4--|--4----4----4----4----|--0----0----0----0----|
I--4--------------4-4-4--|--4----4----4----4----|----------------------|
I--2----2----2-----------|--2----2----2----2----|----------------------|
I------------------------|----------------------|----------------------|

I--0-0-0-0-0--0--0----0----|----------------------|--------------------------|
I--1-1-1-1-1--1--1----1----|--3----3----3----3----|--3-3-3-3-3--3--3----3----|
I--0-0-0-0-0--0--0----0----|--2----2----2----2----|--2-2-2-2-2--2--2----2----|
I--------------------------|--4----4----4----4----|--4-4-4-4-4--4--4----4----|
I--------------------------|----------------------|--------------------------|
I--------------------------|----------------------|--------------------------|

I--0----------------------|--0---0---0------0----0----|--0----------------------|
I--2----------------------|--2-2-2-2-2-2-2--2----2----|--2----------------------|
I--2----------------------|--2-2-2-2-2-2-2--2----2----|--2----------------------|
I-------------------------|---------------------------|-------------------------|
I--0----0--0--0--0--0--0--|---------------------------|--0----0--0--0--0--0--0--|
I------------------------|---------------------------|-------------------------|

I--0---0---0------0----0----|-----------0--------------|
I--2-2-2-2-2-2-2--2----2----|--------------0-----------|
I--2-2-2-2-2-2-2--2----2----|--------0--------0-----0--|
I---------------------------|--------------------2-----|
I---------------------------|-----2--------------------|
I---------------------------|--0-----------------------|

I-----------3--------------|-----------2--------------|
I--------0-----3--0-----0--|--------3-----3-----------|
I--------------------0-----|-----2-----------2-----2--|
I-----0--------------------|--0-----------------4-----|
I--------------------------|--------------------------|
I--3-----------------------|--------------------------|

I-----3--------2-----------|-----------0--------------|
I--3-----3--------3--------|--------3-----3--1--------|
I-----------2--------2-----|-----0--------------0--2--|
I-----------------------0--|--------------------------|
I--------------------------|--3-----------------------|
I--------------------------|--------------------------|

I-----------0--------------|-----------0--------------|
I--------3-----3--1--------|--------0-----0-----------|
I-----0--------------0--2--|-----------------2-----2--|
I--------------------------|-----2--------------2-----|
I--3-----------------------|--0-----------------------|
I--------------------------|--------------------------|

I-----------0--------------|-----------0--------------|
I--------0-----0-----------|--------------0-----------|
I-----------------2-----2--|--------0--------0-----0--|
I-----2--------------2-----|--------------------2-----|
I--0-----------------------|-----2--------------------|
I--------------------------|--0-----------------------|

-----------3--------------|-----------2--------------|
--------0-----3--0-----0--|--------3-----3-----------|
--------------------0-----|-----2-----------2-----2--|
-----0--------------------|--0-----------------4-----|
--------------------------|--------------------------|
--3-----------------------|--------------------------|

-----3--------2-----------|-----------0--------------|
--3-----3--------3--------|--------3-----3--1--------|
-----------2--------2-----|-----0--------------0--2--|
-----------------------0--|--------------------------|
--------------------------|--3-----------------------|
--------------------------|--------------------------|

-----------0--------------|--0----------------------|
--------3-----3--1--------|--0----------------------|
-----0--------------0--2--|-------------------------|
--------------------------|--2----------------------|
--3-----------------------|--0----0--0--0--0--0--0--|
--------------------------|-------------------------|

--0---0---0------0----0----|--0--------------0-0-0--|-----------------------|
--0-0-0-0-0-0-0--0----0----|--1--------------1-1-1--|--3---------3----3--3--|
---------------------------|--0--------------0-0-0--|--2---------2----2--2--|
--2-2-2-2-2-2-2--2----2----|--2----2----2-----------|--4----0----4----4--4--|
---------------------------|------------------------|--5---------5----5--5--|
---------------------------|------------------------|-----------------------|

----------------------|--------------------------|--0--------------0-0-0--|
--3----3----3----3----|--3-3-3-3-3--3--3----3----|--1--------------1-1-1--|
--4----4----4----4----|--4-4-4-4-4--4--4----4----|--0--------------0-0-0--|
--5----5----5----5----|--5-5-5-5-5--5--5----5----|--2----2----2-----------|
--5----5----5----5----|--5-5-5-5-5--5--5----5----|------------------------|
----------------------|--------------------------|------------------------|

-----------------------|--0---------------------|--0---0---0------0----0----|
--3---------3----3--3--|--0---------------------|--0-0-0-0-0-0-0--0----0----|
--2---------2----2--2--|--1---------------------|--1-1-1-1-1-1-1--1----1----|
--4----0----4----4--4--|--2----2----2--2--2--2--|---------------------------|
--5---------5----5--5--|------------------------|---------------------------|
-----------------------|--0----0----0--0--0--0--|--0-0-0-0-0-0-0--0----0----|

------------------------|----------------------|--0----0----0----0----|
--3--------------3-3-3--|--3----3----3----3----|--1----1----1----1----|
--4--------------4-4-4--|--4----4----4----4----|--0----0----0----0----|
--4--------------4-4-4--|--4----4----4----4----|----------------------|
--2----2----2-----------|--2----2----2----2----|----------------------|
------------------------|----------------------|----------------------|

--0-0-0-0-0--0--0----0----|----------------------|--------------------------|
--1-1-1-1-1--1--1----1----|--3----3----3----3----|--3-3-3-3-3--3--3----3----|
--0-0-0-0-0--0--0----0----|--2----2----2----2----|--2-2-2-2-2--2--2----2----|
--------------------------|--4----4----4----4----|--4-4-4-4-4--4--4----4----|
--------------------------|----------------------|--------------------------|
--------------------------|----------------------|--------------------------|

--0----------------------|--0---0---0------0----0----|------------------|
--2----------------------|--2-2-2-2-2-2-2--2----2----|------------------|
--2----------------------|--2-2-2-2-2-2-2--2----2----|------------------|
-------------------------|---------------------------|------------------|
--0----0--0--0--0--0--0--|---------------------------|------------------|
-------------------------|---------------------------|------------------|

------------------|------------------|------------------|------------------|
------------------|------------------|------------------|------------------|
------------------|------------------|------------------|------------------|
------------------|------------------|------------------|------------------|
------------------|------------------|------------------|------------------|
------------------|------------------|------------------|------------------|

------------------|------------------|------------------|------------------|
------------------|------------------|------------------|------------------|
------------------|------------------|------------------|------------------|
------------------|------------------|------------------|------------------|
------------------|------------------|------------------|------------------|
------------------|------------------|------------------|------------------|

------------------|------------------|------------------|------------------|
------------------|------------------|------------------|------------------|
------------------|------------------|------------------|------------------|
------------------|------------------|------------------|------------------|
------------------|------------------|------------------|------------------|
------------------|------------------|------------------|------------------|

------------------|------------------|------------------|------------------|
------------------|------------------|------------------|------------------|
------------------|------------------|------------------|------------------|
------------------|------------------|------------------|------------------|
------------------|------------------|------------------|------------------|
------------------|------------------|------------------|------------------|

------------------|------------------|------------------|------------------|
------------------|------------------|------------------|------------------|
------------------|------------------|------------------|------------------|
------------------|------------------|------------------|------------------|
------------------|------------------|------------------|------------------|
------------------|------------------|------------------|------------------|

------------------|------------------|------------------|------------------|
------------------|------------------|------------------|------------------|
------------------|------------------|------------------|------------------|
------------------|------------------|------------------|------------------|
------------------|------------------|------------------|------------------|
------------------|------------------|------------------|------------------|

------------------|------------------|------------------|------------------|
------------------|------------------|------------------|------------------|
------------------|------------------|------------------|------------------|
------------------|------------------|------------------|------------------|
------------------|------------------|------------------|------------------|
------------------|------------------|------------------|------------------|

------------------|------------------|------------------|------------------|
------------------|------------------|------------------|------------------|
------------------|------------------|------------------|------------------|
------------------|------------------|------------------|------------------|
------------------|------------------|------------------|------------------|
------------------|------------------|------------------|------------------|

-----------0--------------|-----------0--------------|
--------------0-----------|--------------0-----------|
--------0--------0-----0--|--------0--------0-----0--|
--------------------2-----|--------------------2-----|
-----2--------------------|-----2--------------------|
--0-----------------------|--0-----------------------|

-----------0--------------|-----------3--------------|
--------------0-----------|--------0-----3--0-----0--|
--------0--------0-----0--|--------------------0-----|
--------------------2-----|-----0--------------------|
-----2--------------------|--------------------------|
--0-----------------------|--3-----------------------|

-----------2--------------|-----3--------2-----------|
--------3-----3-----------|--3-----3--------3--------|
-----2-----------2-----2--|-----------2--------2-----|
--0-----------------4-----|-----------------------0--|
--------------------------|--------------------------|
--------------------------|--------------------------|

-----------0--------------|-----------0--------------|-----------0----------|
--------3-----3--1--------|--------3-----3--1--------|--------0-------------|
-----0--------------0--2--|-----0--------------0--2--|----------------------|
--------------------------|--------------------------|-----2----------------|
--3-----------------------|--3-----------------------|--0-------------------|
--------------------------|--------------------------|----------------------|

------------------||
------------------||
------------------||
------------------||
------------------||
------------------||

Ещё песни с аккордами исполнителя/группы «A-Ha»