Hells Bells
AC/DC
AC/DCHells Bells Прислать видеоурок
AC/DC Hells Bells 2013-12-14T00:00:00+04:00
Добавлено: — , Просмотров: 628 (+0)

  Добавить в избранное

Hells Bells

E----0---------------|----------------------|----0-----------------|----------------------|--0-----------------|--------------------|--0-------------
B--------3--------1--|----------3-----------|----------3--------1--|----------3-----------|--------3--------1--|--------3-----------|--------3-------
G-----------2--------|----0--------2--------|-------------2--------|----0-----------------|-----------2--------|--0--------2--------|-----2-----2----
D--------------------|----------------------|----------------------|-------------5--5-----|--------------------|--------------------|----------------
A--0--0--------0-----|-------0--------0--0--|-------0--------0-----|-------0-----3--2--0--|-----0--------0-----|-----0--------0--0--|--------------0-
E--------------------|----------------------|----------------------|----------------------|--------------------|--------------------|----------------

E--3--|--3--3--2-------------|------------------------|-------------------|---------------------------------------------------------------------------
B--3--|--3--3--3-------------|------------------------|-------3----3------|---------------------------------------------------------------------------
G--0--|--0--0--2-------------|----9--7--9----7--5--7--|-------0----0------|---------------------------------------------------------------------------
D--0--|--0--0--0----5--5-----|----7--7--7----5--5--7--|-------------------|---------------------------------------------------------------------------
A--2--|--2--2--0----3--2--0--|---------------------0--|----0--3----2--0---|---------------------------------------------------------------------------
E--3--|--3--3----------------|------------------------|-------------------|---------------------------------------------------------------------------

ВOТ И ВCE PEБЯТКИ1! AC/DC FOREVER!!!

Hell's Bells (Young, Young, Johnson)

I'm a rolling thunder, a pouring rain
I'm comin' on like a hurricane
My lightning's flashing across the sky
You're only young but you're gonna die

I won't take no prisoners, won't spare no lives
Nobody's putting up a fight
I got my bell, I'm gonna take you to hell
I'm gonna get you, Satan get you

CHORUS:
Hell's Bells
Yeah, Hell's Bells
You got me ringing Hell's Bells
My temperature's high, Hell's Bells

I'll give you black sensations up and down your spine
If you're into evil you're a friend of mine
See my white light flashing as I split the night
'Cause if good's on the left, then I'm stickin' to the right

I won't take no prisoners, won't spare no lives
Nobody's puttin' up a fight
I got my bell, I'm gonna take you to hell
I'm gonna get you, Satan get you

CHORUS

Ещё песни с аккордами исполнителя/группы «AC/DC»