T.N.T
AC/DC
AC/DCT.N.T Прислать видеоурок
AC/DC T.N.T
Добавлено: — , Просмотров: 326 (+1)

  Добавить в избранное

"High Voltage"
T.N.T

P.M.=PALM MUTE        L.R.=LET NOTE(S) RING
ALL PARTS ARE PLAYED WITH JUST A LITTLE BIT OF FUZZ
               INTRO
E-|---|----|-----------------------|-----------------
B-|---|----|-----------------------|-----------------
G-|---|----|-----------------------|-----------------
D-|-2-|----|-2---------------------|-----------------
A-|-2-|----|-2-----5--5------------|-----------------
E-|-0-|----|-0-----3--7---3--5--3--|-----------------
   L.R.                                P.M.
       VERSE (SAME AS INTRO)
E--|------------------------|------------------------
B--|------------------------|------------------------
G--|------------------------|------------------------
D--|--2---------------------|------------------------
A--|--2-----5--5------------|------------------------
E--|--0-----3--7---3--5--3--|------------------------
                                P.M.
                    PLAY THIS PART AFTER CHORUS
    CHORUS          IS PLAYED FOR THE LAST TIME
E--|----------|--------------------------------------
B--|----------|--------------------------------------
G--|----------|--------------------------------------
D--|--------2-|--------------------------------------
A--|--7--5--2-|--5---7-------------------------------
E--|--5--3--O-|--3---5-------------------------------
                          L.R.
THE SOLO AT THE END OF THE SONG IS PLAYED IN E MINOR
PENTATONIC.

Ещё песни с аккордами исполнителя/группы «AC/DC»