You Shook Me All Night Long
AC/DC
AC/DCYou Shook Me All Night Long Прислать видеоурок
AC/DC You Shook Me All Night Long
Добавлено: — , Просмотров: 413 (+2)

 
Добавить в избранное

You Shook Me All Night Long

Intro: Repeat a couple of times.          Main riff:
-------------------------------2---------|------------------------------------
-------------------------------3---------|------------------------------------
-8--10---8---8---7-h-8-p-7-----2---------|-0--5--5--0--5--0--7----------------
-7---7---7---7-------------7---0---3-p-0-|-0--5--5--0--5--0--7----------------
-----------------------------------------|------------------------------------
-----------------------------------------|------------------------------------

----------------
----------------
---0-0-7-0-7-0--
---0-0-7-0-7-0--
----------------
----------------

Main riff is just G C  and D , changes to barre chords later.
You may prefer to play the intro in the open position, I find this way easier.

Sorry (no flame) but IMHO at least You Shook Me.. goes sumthin' like this:

Intro:
--|3---------------|5--3------3----|---------------|---------------|
--|3---------------|3--3--3-----3--|3--------------|3--------------|
--|0---------------|0---0----0-----|2--------------|2--------------|
--|----------------|---------------|0----------3-4-|0-----3-4--3-4-|
  |----------------|---------------|---------------|---------------|
  |----------------|---------------|---------------|---------------|
        ||               ||               ||              *
  |     ||         |     ||        |      ||       |3--------------|
  |     VV         |     VV        |      VV       |2--------------|
  |                |               |               |0--------------|
  |                |               |               |---------------|
  |                |               |               |---------------|
  |                |               |               |---------------|

* : Crank up volume

Verse: | G  | C C G C G  | D  | G G C G C  | :||

                (Just follow the beat)

Chorus: | G A B  | C B  | D  | A B C B  | :||

I DO appology for my own (strange) notation but if you
follow the beat on the record for practicing then you should get
it "Right, Quite Right"

Be shure to NOT use any reverb at all to get the right feeling on this
track. Otherwise you wont get the true Angus & Malcolm rythmstyle

And, please, don't flame me if I haven't got the above right. It's done
straight out of memory and with no axe at hand.

You've both got the names of the chords correct, but to reproduce Angus' sound
and feeling, you've got to get the fingering correct:
Main riff for first verse:
--3--------(3)-(3)--3----(3)--3----2------3---3---2-----3---2-------------------
--0---------1---1---0-----1---0----3------0---0---3-----0---3-------------------
--0---------0---0---0-----0---0----2------0---0---2-----0---2-------------------
--0--------(2)-(2)--0-----2---0----0------0---0---0-----0---0-------------------
-(2)--------3---3--(2)----3--(2)---------(2)-(2)-------(2)----------------------
--3-----------------3---------3-----------3---3---------3-----------------------
Second Verse (one guitar plays same as first verse, other plays this):
--3--------(3)-(3)--3----(3)--3----2------3---3---2-----3---2-------------------
--0---------1---1---0-----1---0----3------3---3---3-----3---3-------------------
--0---------0---0---0-----0---0----2------0---0---2-----0---2-------------------
--0--------(2)-(2)--0-----2---0----0------0---0---0-----0---0-------------------
-(2)--------3---3--(2)----3--(2)---------(2)-(2)-------(2)----------------------
--3-----------------3---------3-------------------------------------------------
Chorus (both guitars):
-----3-----------------------2-------------------------3------------------------
-----3---------3-----3-------3----------3--------3-----0------------------------
-----0-----------0-----0-----2------------0----0-------0------------------------
-0---0--------------------0--0-------------------------0------------------------
-2---2---0-2-3-----2--------------0-2-3------2---------2------------------------
-3---3----------------------------------------------3--3------------------------

Ещё песни с аккордами исполнителя/группы «AC/DC»