3 Libras
A Perfect Circle
A Perfect Circle3 Libras Прислать видеоурок
A Perfect Circle 3 Libras
Добавлено: — , Просмотров: 229 (+0)

  Добавить в избранное

"Mer de Noms"
3 Libras

Alright, as far as I know, nobody has tabbed this song
as of yet. It really is a great one, but as this is my
first tab, it might be slightly off in some parts...

Intro: (No Distortion)
e|---------------------------------|
B|---------------------------------|
G|-4-4-4-4-4-4-6-6-4-4-4-4-8-8-6-6-| \ Repeat
D|--2---2---2---4---2---2---6---4--| / 2x
A|---------------------------------|
E|---------------------------------|

On second time, finish with this:
e|---------------------------------|
B|---------------------------------|
G|-7-7-7-7-7-7-7-------------------|
D|--5---5---5--5-------------------|
A|-------------0-------------------|
E|---------------------------------|

Verse 1: (No Distortion)
e|---------------------------------| \ Repeat
B|---------------------------------| /   4x
G|-4-4-4-4---6---8-8--(7-7)--------|
D|--2---2-----4\--6----(5)---------| Do parenthesied notes
A|---------------------------------| at the very end
E|---------------------------------| of the verse.

Chorus 1: (No Distortion)
e|---------------------------------|
B|---------------------------------|
G|-4-4-4-4-4-4-6-6-4-4-4-4-8-8-8-8-| \ Repeat
D|--2---2---2---4---2---2---6---6--| / 2x
A|---------------------------------|
E|---------------------------------|

Verse 2: (No Distortion)
e|---------------------------------| \ Repeat
B|---------------------------------| / 4x
G|-4-4-4-4---6---8-8--(7-7)--------|
D|--2---2-----4\--6----(5)---------| Do parenthesied notes
A|---------------------------------| at the very end
E|---------------------------------| of the verse.

Chorus 2: (Medium-Heavy Distortion)
e|---------------------------------|
B|---------------------------------|
G|---------------------------------|
D|-4-4-4-4-4-4--8-------6----------|
A|-4-4-4-4-4-4--8-------6----------|
E|-2-2-2-2-2-2--6-------4----------|

Verse 3: (Distortion Free)
e|---------------------------------|
B|---------------------------------|
G|-4-4-4-4-4-4-6-6-4-4-4-4-8-8-6-6-| \ Repeat
D|--2---2---2---4---2---2---6---4--| / 2x
A|---------------------------------|
E|---------------------------------|

Outro: (Heavy Distortion)
#=Play Chord 4x
*=Play Chord 6x
##=Play Chord 8x
**=Play Chord 12x
e|---------------------------------|
B|---------------------------------|
G|-8-8-8-6\4---4---4---4/6-6-6/8**-|
D|-8-8-8-6\4---4---4---4/6-6-6/8---|
A|-6-6-6-4\2---2---2---2/4-4-4/6---|
E|---------------------------------|

e|---------------------------------|
B|---------------------------------|
G|-6-4-4---4---4---4/6-6-6/8**-----|
D|-6-4-4---4---4---4/6-6-6/8-------|
A|-4-2-2---2---2---2/4-4-4/6-------|
E|---------------------------------|

e|---------------------------------|
B|---------------------------------|
G|-10--10-10-10-14**16*\12-12\10##-|
D|-10--10-10-10-14--16-\12-12\10---|
A|--8---8--8--8-12--14-\10-12\-8---|
E|---------------------------------|

e|---------------------------------|
B|---------------------------------|
G|-8#-6##-6-8-8-8-6##-8--8--8--4---|
D|-8--6---6-8-8-8-6---8--8--8--4---|
A|-6--4---4-6-6-6-4---6--6--6--2---|
E|---------------------------------|

Fini!