Aiming High
Accept
AcceptAiming High Прислать видеоурок
Accept Aiming High
Добавлено: — , Просмотров: 276 (+0)

  Добавить в избранное

Aiming High

E ------------------------------------------------------------------------------------
H ------------------------------------------------------------------------------------
G 2-----4-----5---7-----5-----4---5-----4-----2---1-----2-----4-----------------------
D 2-----2-----2---3-----3-----3---2-----2-----2---2-----2-----2-----------------------
A --0-0---0-0---0---0-0---0-0---0---0-0---0-0---0-------------------------------------
E --------------------------------------------------0-0---0-0---0---------------------

E ------------------------------------------------------------------------------------
H --------------------------------1-----3-----6---5-----------------------------------
G 2-----4-----5---7-----5-----4---2-----2-----2---4-----------------------------------
D 2-----2-----2---3-----3-----3-----0-0---0-0---0-2-----------------------------------
A --0-0---0-0---0---0-0---0-0---0-----------------------------------------------------
E ------------------------------------------------------------------------------------

Ещё песни с аккордами исполнителя/группы «Accept»