Another Second to Be
Accept
AcceptAnother Second to Be Прислать видеоурок
Accept Another Second to Be
Добавлено: — , Просмотров: 248 (+1)

  Добавить в избранное

Another Second to Be

E ------------------------------------------------------------------------------------------
H ------------------------------------------------------------------------------------------
G ------------------------------------------------------------------------------------------
D ---------4--------5--------4--------5--------4--------2---0-------------------------------
A 2----2-2------2-2------2-2------2-2------0-0------0-0---------4---------------------------
E -------------------------------------------------------------------3----------------------

E ------------------------------------------------------------------------------------------
H ------------------------------------------------------------------------------------------
G ------------------------------------------------------------------------------------------
D ------------------------------------------------------------------------------------------
A ---------5--------4--------5--------5--------4--------2---1--------2- - 1st time ---------
E -----3-3------3-3------3-3------3-3------2-2------2-2---------2---(0) - 2nd time ---------

Ещё песни с аккордами исполнителя/группы «Accept»