Breaking Up Again
Accept
AcceptBreaking Up Again Прислать видеоурок
Accept Breaking Up Again
Добавлено: — , Просмотров: 957 (+0)

  Добавить в избранное

Breaking Up Again

h = hammer on
p = pull

Well, here it is, pretty simple, really, only tricky part is the
way Wolf plays the base notes at the hammer-on, rather than at
the begining

E-|--3-----3-----3-----2-----2-----2-----0-----0------------------------------|
B-|------0-----0-----------0-----0-----------0-------0-----3-----3-----3------|
G-|----0-----0-----------0-----0-----------0-------0-----------0-----0--------|
D-|--2-----------------0-------------------------2-----------0-----0----------|
A-|--------------------------------------3-----------------2------------------|
E-|---------------------------------------------------------------------------|

E-|------------------------------------------------0------------------2-----2-|
B-|--3-----3--------1p0h1-----1p0h1---1----------0-------0----------0-----0---|
G-|------2-----2------------2-------2----------0-------0----------2-----2-----|
D-|----0-----0------------2-------2----------2-------2----------1-------------|
A-|---------------------0-------------------------------------2---------------|
E-|--2-------------------------------------0----------------------------------|
                                                             rit.______________

E-|--0---------|
B-|--0---------|
G-|--0---------|
D-|--2---------|
A-|--2---------|
E-|--0---------|
   ____

Ещё песни с аккордами исполнителя/группы «Accept»