Fast as a Shark
Accept
AcceptFast as a Shark Прислать видеоурок
Accept Fast as a Shark
Добавлено: — , Просмотров: 243 (+1)

  Добавить в избранное

Fast as a Shark

E 17-14----14-17-14-15-14----14-17-14-15-14----14-19-15----15-19-15-17-15----15-19-15-17-15----15-
H ------15----------------15----------------15----------17----------------17----------------17----
G ------------------------------------------------------------------------------------------------
D ------------------------------------------------------------------------------------------------
A ------------------------------------------------------------------------------------------------
E ------------------------------------------------------------------------------------------------

E-15-12----12-15-12-14-12----12-15-12-14-12----12-15-14-------------------------14-15-14----14-
H ------14----------------14----------------14----------17-15-14----------14-15-17----------15----
G ---------------------------------------------------------------16-14-16-------------------------
D ------------------------------------------------------------------------------------------------
A ------------------------------------------------------------------------------------------------
E ------------------------------------------------------------------------------------------------

E-17-14----14-17-14-15-14----14-17-14-15-14----14-19-15----15-19-15-17-15----15-19-15-17-15----15-
H ------15----------------15----------------15----------17----------------17----------------17----
G ------------------------------------------------------------------------------------------------
D ------------------------------------------------------------------------------------------------
A ------------------------------------------------------------------------------------------------
E ------------------------------------------------------------------------------------------------

E-15-12----12-15-12-14-12----12-15-12-14-12----12-15-14-------------------------------------------
H ------14----------------14----------------14----------17-15-14----------------------------------
G ---------------------------------------------------------------16-14----------------------------
D ---------------------------------------------------------------------17-16-14-------------------
A ------------------------------------------------------------------------------17-16-14----------
E ------------------------------------------------------------------------------------------------

E-14-10----10-14-10-12-10----10-14-10-12-10----10-17-14----14-17-14-15-14----14-17-14-15-14----14-
H ------12----------------12----------------12----------15----------------15----------------15----
G ------------------------------------------------------------------------------------------------
D ------------------------------------------------------------------------------------------------
A ------------------------------------------------------------------------------------------------
E ------------------------------------------------------------------------------------------------

E 12-9----9-12-9-10-9----9-12-9-10-9----9-(..And then some descending thing..)--------
H -----10-------------10-------------10---(..May come later..)------------------------------------
G ------------------------------------------------------------------------------------------------
D ------------------------------------------------------------------------------------------------
A ------------------------------------------------------------------------------------------------
E ------------------------------------------------------------------------------------------------

Ещё песни с аккордами исполнителя/группы «Accept»