Love Child
Accept
AcceptLove Child Прислать видеоурок
Accept Love Child
Добавлено: — , Просмотров: 289 (+0)

  Добавить в избранное

Love Child

E ------------------------------------------------------------------------------------------
H ------------------------------------------------------------------------------------------
G --------------------------------------------7---------------------------------------------
D ----9-----9---9-------10----10--9-----7-----7---7-----9-----------------------------------
A ----7-----7---7-------7-----7---7-----7---------7-----7-----0-----------------------------
E 0-0---0-0---0---0-0-0---0-0---0---0-0---0-0-------0-0---0-0---3-2-------------------------

E ------------------------------------------------------------------------------------------
H ------------------------------------------------------------------------------------------
G --------------------------------------------7---------------------------------------------
D ----9-----9---9-------10----10--9-----7-----7---------------------------------------------
A ----7-----7---7-------7-----7---7-----7---------------------------------------------------
E 0-0---0-0---0---0-0-0---0-0---0---0-0---0-0---------0-2-0-3-0-5-3-------------------------

E ------------------------------------------------------------------------------------------
H ------------------------------------------------------------------------------------------
G --------------------------------------------7---------------------------------------------
D ----9-----9---9-------10----10--9-----7-----7---7-----9-----------------------------------
A ----7-----7---7-------7-----7---7-----7---------7-----7-----0-----------------------------
E 0-0---0-0---0---0-0-0---0-0---0---0-0---0-0-------0-0---0-0---3-2-------------------------

E ------------------------------------------------------------------------------------------
H ------------------------------------------------------------------------------------------
G --------------------------------------------7---------------9---9-------------------------
D ----9-----9---9-------10----10--9-----7-----7---7-----9-----7---7-------------------------
A ----7-----7---7-------7-----7---7-----7---------7-----7-----------------------------------
E 0-0---0-0---0---0-0-0---0-0---0---0-0---0-0-------0-0---0-0---0---------------------------

Ещё песни с аккордами исполнителя/группы «Accept»