Princess of the Dawn
Accept
AcceptPrincess of the Dawn Прислать видеоурок
Accept Princess of the Dawn
Добавлено: — , Просмотров: 857 (+1)

  Добавить в избранное

Princess of the Dawn

E ------------------------------------------------------------------------------------------
H 3-----3---------1-----3---------3-----3---------------------------------------------------
G 2-----3---------0-----2---------2-----3-------5-5---7-7-----------------------------------
D --0-0---0-0-0-0---0-0---0-0-0-0---0-0---0-0-0-5-5---7-7-----------------------------------
A ----------------------------------------------3-3---5-5-----------------------------------
E ------------------------------------------------------------------------------------------
The outro melody:
E -----------------------------------6---8-6-5------------------------------------------------
H ----------6-----6-8---6-8-10----10---8-------8-6-5-6---5------------------------------------
G --7-6-7-9---7-9-----9------------------------------7---6-7--------------------------------
D 7-----------------------------------------------------------------------------------------
A ------------------------------------------------------------------------------------------
E ------------------------------------------------------------------------------------------

Ещё песни с аккордами исполнителя/группы «Accept»