Bleed me an ocean
Acid Bath
Acid BathBleed me an ocean Прислать видеоурок
Acid Bath Bleed me an ocean
Добавлено: — , Просмотров: 230 (+0)

  Добавить в избранное

Bleed me an ocean

it's from the cd paegan terrorism tactics
their record label is rotten records
they are from louisiana
this song is played in drop c tuning
that is top strind dropped twice
and other strings dropped once
1|----------------------------------------
2|----------------------------------------
3|----------------------------------------
4|---7-7-7-5\10-10-10-0-5-3-3-3-0-6-6-6-5-
5|---7-7-7-5\10-10-10-0-5-3-3-3-0-6-6-6-5-
6|---7-7-7-5\10-10-10-0-5-3-3-3-0-6-6-6-5-
(verse)
1|----------------------------------------------
2|----------------------------------------------
3|----------------------------------------------
4|---7-7-7-7-7-7-7-7-7-7-7-7-7-7-7---3-----2----
5|---7-7-7-7-7-7-7-7-7-7-7-7-7-7-7--3--3--2---2-
6|---7-7-7-7-7-7-7-7-7-7-7-7-7-7-7-3----2-------
(chorus)
1|------------------------------
2|------------------------------
3|------------------------------
4|---7-7-7-10-10-10-3-3-3-6-6-6-
5|---7-7-7-10-10-10-3-3-3-6-6-6-
6|---7-7-7-10-10-10-3-3-3-6-6-6-
(interlude)     (let the roll on, play with a little speed)

play list:
verse
chorus
interlude
chorus
play interlude slow and creepy
verse little faster then before
pause and mute
verse

lyrics:
verse

let the blackness rool on
mother's cool reptillan womb
ain't so cold tonight
my fingers trace the exit wounds by graveyard light
there's bone dust in my throat and everything is dead
but it's all right
take it easy
you bleed so easy

chorus

bleed me an ocean bleed me an ocean tonight by electric graveyard light
bleed me an ocean
let me rot beneath the sky
teach me how to die
bleed me an ocean
as the blossom eats the butterfly
can you feel col death that rides up your spine

interlude

let the blackness roll on
you bleed so easy
let the blckness rool on
i was sexless in the clouds again
i was chasing the cold cold wind
i've become bored with the flesh and bone again
the deepest alone
i was riding the turbulence
an ocean of hades it's all downhill from here
on the outer no where
let the blackness rool on
you bleed so easy
let the blackness rool on
i was stoned as a drone
of blackness that humms
i've become bored with the flesh and bone again
the endless humm of the highway drone
i was riding the turbulance of hades
the taste of dead sex on my tongue
let the blackness roll on
you bleed so easy
let the blackness roll on

chorus

just like a rain drop
i was born to fall and scale these prison walls
interlude slow
it was over before you were sucked into a vacum
of this universal tomb

verse little speed

old blossom dies
like a young man breathes
the insect hum with thier hunger and grieve
an icon of pale bone
static white dream
blind in the wilderness
everybody scream
i couldn't find my way out the door
we all died
woke up on the floor
i ride the painted whore she gives good universal screamms
mute
i ride the painted whore she gives good universal screams

verse

i ride the painted whore she gives good universal screams
oh yeah

Ещё песни с аккордами исполнителя/группы «Acid Bath»