Ballad For Kay
Acoustic Alchemy
Acoustic AlchemyBallad For Kay Прислать видеоурок
Acoustic Alchemy Ballad For Kay
Добавлено: — , Просмотров: 301 (+0)

  Добавить в избранное

"Natural Elements"
Ballad For Kay

It's a guitar duet with rythm and solo guitar.
This transcription only contains the rythm-guitar section (not complete, sorry).
It's in E-major key.

Much fun.
|-------------|-------------|-------------|-------------|-------------|
|-5-----5-----|-5-----5-----|-5-----5-----|-5-----5-4---|-2-----2-----|
|-----4---4---|-----4---4---|-----8---4---|-----4-------|-----4---4---|
|---4-------4-|---7-------7-|---6-------6-|---6-------6-|---6-------6-|
|-7-----------|-6-----------|-4-----------|-------------|-------------|
|-------------|-------------|-------------|-7-------5---|-4-----------|
               1:st time------------------|2:nd/3:d time
|-------------|-------------|-------------|-------------|-------------|
|-------------|-5-----5-----|-5-----5----п|-------------|-5-----5-----|
|-6-----6-----|-----4---4---|-----4---4---|-4-----4-----|-----4---4---|
|-----7---7---|---7-------7-|---6-------6-|-----7---7---|---6-------6-|
|---7-------7-|-------------|------------п|---5-------5-|-------------|
|-5-----------|-7-----------|-0-----------|-3-----------|-0-----------|

|-------------|-------------|-------------|-------------|-------------|
|-5-----5-----|-5-----5-----|-5-----5-----|-5-----5-4---|-------------|
|-----4---4---|-----4---4---|-----8---4---|-----4-------|-4-----4-----|
|---4-------4-|---7-------7-|---6-------6-|---6-------6-|-----6---6---|
|-7-----------|-6-----------|-4-----------|-------------|---7-------7-|
|-------------|-------------|-------------|-7-------5---|-4-----------|

|-------------|-------------|-------------|-------4-----|-------5-----|
|-------------|-------5-----|-5-----5----п|-5---5---5---|-5---5---5---|
|-6-----6-----|-4---4---4---|-----4---4---|---6-------6-|---6-------6-|
|-----9---7---|---7-------7-|---6-------6-|-------------|-------------|
|---7-------7-|-------------|------------п|-4-----------|-------------|
|-5-----------|-7-----------|-0-----------|---------4---|-5-------5---|

|-------------|-------------|
|-9---9---7---|-5-----5-----|
|---9-------7-|-----4---4---|
|-------------|---6---------|
|-7-------5---|-4-----------|
|-------------|-----------4-| ... sorry, after this it gets too tricky.