Can't Stop this thing We Started
Adams Bryan
Adams BryanCan't Stop this thing We Started Прислать видеоурок
Adams Bryan Can't Stop this thing We Started
Добавлено: — , Просмотров: 292 (+0)

  Добавить в избранное

Can't Stop this thing We Started
(Bryan Adams and R.J. Lange)

Intro
standard Tuning
Rock Shuffle= 110
(1)                YEAH!
E|-5------5----5------5------5------5------5-------5-----|
B|--3------3----3------3------3-------3------3------3----|
G|----2------2----2------2------2-------2------2------2--|
D|-------------------------------------------------------|
A|-------------------------------------------------------|
E|-------------------------------------------------------|
(2)
E|-------7---5-------7----5-----5---4--------5---4--------|
B|----7-----------7----------5------------5---------------|
G|--7----------7----------4------------4------------------|
D|--------------------------------------------------------|
A|--------------------------------------------------------|
E|--------------------------------------------------------|
play (2) about 4 more times
Play (3) 4 times for each Verse
(3)  You might stop a hurricane, might even stop....
E|-----2--------2----------------------------------------|
B|-----2--------2-----2--2---(2)---2-------2/3---2/3-----|
G|-----2--------2-----2--2---(2)---2-------2-----2-------|
D|-0---------0--------2--2---(2)---2-------2/4---2/4-----|
A|--------------------0--0---(0)---0-------0-----0-------|
E|-------------------------------------------------------|
(3) You might have had a dozen other guys, but if you....
E|-----2--------2----------------------------------------|
B|-----2--------2-----2--2---(2)---2-------2/3---2/3-----|
G|-----2--------2-----2--2---(2)---2-------2-----2-------|
D|-0---------0--------2--2---(2)---2-------2/4---2/4-----|
A|--------------------0--0---(0)---0-------0-----0-------|
E|-------------------------------------------------------|

PLAY (2) X AMOUNT OF TIMES
 I'm goin one way, your way.    Now it's such a.......
(2)
E|-------7---5-------7----5-----5---4--------5---4--------|
B|----7-----------7----------5------------5---------------|
G|--7----------7----------4------------4------------------|
D|--------------------------------------------------------|
A|--------------------------------------------------------|
E|--------------------------------------------------------|
      Can't stop this thing we start - ed.  Ya gotta know when it's
right
E|--12-14-17-17-14-17----17----17--------------(17)--------|
B|--12-14-17-17-14-17----17----17--------------(17)--------|
G|---------------------------------------------------------|
D|---------------------------------------------------------|
A|---------------------------------------------------------|
E|---------------------------------------------------------|

        I can't stop this course we plo - ted.
(NOTE*: hammer 1st 5 to second 5)
     *
E|--------5--------------------------------0--9--10--9----------|
B|---5--7------5-----------------------------------------10-----|
G|--------------------------------------------------------------|
D|--------------------------------------------------------------|
A|--------------------------------------------------------------|
E|--------------------------------------------------------------|

This thing called love we got it.    Ain't no place for the broken....
E|-------------------------------8---6--------------------------|
B|-----------------------------6-------5------------------------|
G|---------------------------5-----------6-------------5----6---|
D|--------------------------------------------------------------|
A|--------------------------------------------------------------|
E|--------------------------------------------------------------|
SOLO
E|--------------------------------------------------------------|
B|-----^---10-------10----10----------12BEND12---(12)----12-----|
G|----9/11------11-----------------11---------------------------|
D|--------------------------------------------------------------|
A|--------------------------------------------------------------|
E|--------------------------------------------------------------|

E|-12-------------------------------------12--------------------|
B|----12BEND(12)--10/12-----10---12BEND---------12BEND(12)------|
G|--------------------------------------------------------------|
D|--------------------------------------------------------------|
A|--------------------------------------------------------------|
E|--------------------------------------------------------------|
                                                (Tremlo)
E|--------------------------------------------------------------|
B|--10-------12-----10---10---------10---10---10--12----10------|
G|---------------11--------------11-------------------------11--|
D|--------------------------------------------------------------|
A|--------------------------------------------------------------|
E|--------------------------------------------------------------|

E|-12/12--12/12--12/12-12---12---12---12/14-14-14-14-14-14\12-12|
B|-12/14--12/14--12/14-12---12---12---12/14-14-14-14-14-14\12-12|
G|--------------------------------------------------------------|
D|--------------------------------------------------------------|
A|--------------------------------------------------------------|
E|--------------------------------------------------------------|

E|-12--12--12--12-14-17-17-14-17-17-----17----17----------------|
B|-12--12--12--12-14-17-17-14-17-17-----17----17----------------|
G|--------------------------------------------------------------|
D|--------------------------------------------------------------|
A|--------------------------------------------------------------|
E|--------------------------------------------------------------|

Ещё песни с аккордами исполнителя/группы «Adams Bryan»