ANU
Adrian Legg
Adrian LeggANU Прислать видеоурок
Adrian Legg ANU
Добавлено: — , Просмотров: 247 (+0)

  Добавить в избранное

ANU

NOTES
 1.) Even though I am pretty sure this is a release note,
     I pick it as it seems to work best as an accent note.
     (and this goes for all the rest of the song where the
      pattern is the same)
 2.) had a heck of a time making this sound smooth - thus
     I changed it a bit to:
E-|-0-----0---------0-----0--3-----3-------3-----------3-2---------------|
B-|-----1---3-----3-----1--------0-------3---3-------3-----3-------------|
G-|---0---------0-----0--------0-------2-------2---2---------2---------0-|
D-|-----------0--------------2-------0-----------0-------------0---0h2---|
A-|-3-------2-------3--------------------------------------------3-------|
D-|----------------------------------------------------------------------|
 3.) minor change
E-|----------------------
B-|-2---2-3-5---12----12-
G-|---^0-----------^0----
D-|----------------------
A-|-0---0-2-4---10----10-
D-|----------------------
 4.) the D-G notes in between are not what he plays. Couldn't figure
     this one out. I accent the other notes and play these quiet and
     mix it a bit (sometimes use G-D) and it seems to work...
 5.) These seem to be the correct notes, but for the life of me I can't
     perform this near as smooth as is on the recording. I've tried
     different positioning (different frets - same notes) but this
     seems to be the easiest.
All that said - Good Luck!!!!

1.
E-|-------------------------|-------------------------|
B-|-------3-5p3-------3-5p3-|-------3---5p3-------3-2-|
G-|-----------------0--0----|-------0-----------0-2-0-|
D-|-----0--0------0---------|-----0---0-------0-------|
A-|---0---------2-----------|---5-----------0---------|
D-|-0-----------------------|-5-----------------------|
2.
E-|-------------------------|-------------------------|
B-|-------3-5p3-------3-5p3-|-------3---5p3-------3-2-|
G-|-----------------0--0----|-----0---0---------2-2-0-|
D-|-----0--0------0---------|---0-------------2-------|
A-|---0---------2-----------|---------------0---------|
D-|-0-----------------------|-2-----------------------|
3.          *NOTE 1
E-|-------5p2---0-------2-0-|-----------0----------|
B-|-----------3-------3-----|-------0h3----2--3/5--|
G-|-----------------2-------|-----0--------0-------|
D-|-----0-------------------|---0----------2--3/5--|
A-|---0---------------------|--------------0-------|
D-|-0-------------4---------|-5--------------------|
4.
E-|-------5p2---0-------2-0-|---------0------------|
B-|-----------3-------3-----|-------3------2--3/5--|
G-|-----------------2-------|-----0--------0-------|
D-|-----0-------------------|---0----------2--3/5--|
A-|---0---------------------|--------------0-------|
D-|-0-------------4---------|-5--------------------|
5.
E-|-------5p2---0-------2-0-|-----------0------------|
B-|-----------3-------3-----|-------0h3----2---------|
G-|-----------------2-------|-----0--------0---------|
D-|-----0-------------------|---0----------2-------0-|
A-|---0---------------------|--------------0--0h2h4--|
D-|-0-------------4---------|-5----------------------|
6.
E-|-------------------------|-------------------------|
B-|-------3-5p3-------3-5p3-|-------3---5p3-------3-2-|
G-|-----------------0--0----|-----0---0---------0-2-0-|
D-|-----0--0------0---------|---0-------------0-------|
A-|---0---------2-----------|---------------0---------|
D-|-0-----------------------|-5-----------------------|
6.
E-|-------------------------|-------------------------|
B-|-------3-5p3-------3-5p3-|-------3---5p3-------3-2-|
G-|-----------------0--0----|-----0---0---------0-2-0-|
D-|-----0--0------0---------|---0-------------0-------|
A-|---0---------2-----------|---------------0---------|
D-|-0-----------------------|-5-----------------------|
3.
E-|-------5p2---0-------2-0-|-----------0----------|
B-|-----------3-------3-----|-------0h3----2--3/5--|
G-|-----------------2-------|-----0--------0-------|
D-|-----0-------------------|---0----------2--3/5--|
A-|---0---------------------|--------------0-------|
D-|-0-------------4---------|-5--------------------|
4.
E-|-------5p2---0-------2-0-|---------0------------|
B-|-----------3-------3-----|-------3------2--3/5--|
G-|-----------------2-------|-----0--------0-------|
D-|-----0-------------------|---0----------2--3/5--|
A-|---0---------------------|--------------0-------|
D-|-0-------------4---------|-5--------------------|
5.
E-|-------5p2---0-------2-0-|-----------0------------|
B-|-----------3-------3-----|-------0h3----2---------|
G-|-----------------2-------|-----0--------0---------|
D-|-----0-------------------|---0----------2-------0-|
A-|---0---------------------|--------------0--0h2h4--|
D-|-0-------------4---------|-5----------------------|
6.
E-|-------------------------|-------------------------|
B-|-------3-5p3-------3-5p3-|-------3---5p3-------3-2-|
G-|-----------------0--0----|-----0---0---------0-2-0-|
D-|-----0--0------0---------|---0-------------0-------|
A-|---0---------2-----------|---------------0---------|
D-|-0-----------------------|-5-----------------------|
6.
E-|-------------------------|-------------------------|
B-|-------3-5p3-------3-5p3-|-------3---5p3-------3-2-|
G-|-----------------0--0----|-----0---0---------0-2-0-|
D-|-----0--0------0---------|---0-------------0-------|
A-|---0---------2-----------|---------------0---------|
D-|-0-----------------------|-5-----------------------|
7.
E-|-------------------------|-------------------0---------------|
B-|-------3-----0---------3-|-----3-------3-------3-------------|
G-|-----------0---------0---|---0-------------2-----2-------0---|
D-|-----0---0---------0-----|-0---------0---0---------0---0---0-|
A-|---0-----------0H2-------|---------0-----------------3-------|
D-|-0-----------------------|-------0---------------------------|
8.
E-|------------------------------|----------------------------|
B-|-------3---5p3--------3---5p3-|-------3---5p3--0-----0-----|
G-|-----0---0----------0---0-----|-----0---0------0---0-0---0-|
D-|---0--------------0-----------|---0------------0-0---0-0---|
A-|-2--------------3-------------|-2--------------------------|
D-|------------------------------|----------------5-----5-----|
9.                                       Note 2:
E-|-0-----0---------0-----0--3-----3-------3-------3-2-------------|
B-|-----1---3-----3-----1--------0-------3---3---3-----3-----------|
G-|---0---------0-----0--------0-------2-------------------------0-|
D-|-----------0--------------2-------0---------0---------0---0h2---|
A-|-3-------2-------3--------------------------------------3-------|
D-|----------------------------------------------------------------|
8.
E-|------------------------------|----------------------------|
B-|-------3---5p3--------3---5p3-|-------3---5p3--0-----0-----|
G-|-----0---0----------0---0-----|-----0---0------0---0-0---0-|
D-|---0--------------0-----------|---0------------0-0---0-0---|
A-|-2--------------3-------------|-2--------------------------|
D-|------------------------------|----------------5-----5-----|
10.
E-|-0-----0---------0-----0--3-----3-------5-----5-------5-------|
B-|-----1---3-----3-----1--------0-------8-----8-------7-------0-|
G-|---0---------0-----0--------0-------7-----7-------7-------0---|
D-|-----------0--------------2-------0-------------0-------0-----|
A-|-3-------2-------3--------------------------------------------|
D-|--------------------------------------------------------------|
11.
E-|-------3---5p3-------3---5p3-------3---5p3-------3---5p3-|
B-|---0-----0-------0-----0-------0-----0-------0-----0-----|
G-|-----0-------------0-------------0-------------0---------|
D-|-2-------------3-------------2-------------1-------------|
A-|---------------------------------------------------------|
D-|---------------------------------------------------------|
12. NOTE 4:
E-|----------------------------------------------------------------|
B-|-7-----\3-----3-5-----5-8-----8-7-----7-3-----3-5-----5-3-----3-|
G-|-----0------0-------0-------0-------0-------0-------0-------0---|
D-|---0------0-------0-------0-------0-------0-------0-------0-----|
A-|-5-----\2-------3-------7-------5-------2-------3-------2-------|
D-|----------------------------------------------------------------|
13.
E-|-----------------------------|-----------------------------|
B-|-------1---3p1-------1-----1-|-------3---5p3-------3-----3-|
G-|-----2-------------2---2-2---|-----2-------------2---2-2---|
D-|---2-----2-------2-----------|---3-----3-------3-----------|
A-|-0-------------0-------------|-0-------------0-------------|
D-|-----------------------------|-----------------------------|
14.
E-|-----------------------------|-------------------------------|
B-|-------1---3p1-------1-----1-|-------1---3p1-------1-------1-|
G-|-----2---2---------2---2-2---|-----2---2---------2-------2---|
D-|---2-------------2-----------|---0-------------0-------0-----|
A-|-0-------------0-------------|-----------------------3-------|
D-|-----------------------------|-0-------------0---------------|
8.
E-|------------------------------|----------------------------|
B-|-------3---5p3--------3---5p3-|-------3---5p3--0-----0-----|
G-|-----0---0----------0---0-----|-----0---0------0---0-0---0-|
D-|---0--------------0-----------|---0------------0-0---0-0---|
A-|-2--------------3-------------|-2--------------------------|
D-|------------------------------|----------------5-----5-----|
10.
E-|-0-----0---------0-----0--3-----3-------5-----5-------5-------|
B-|-----1---3-----3-----1--------0-------8-----8-------7-------0-|
G-|---0---------0-----0--------0-------7-----7-------7-------0---|
D-|-----------0--------------2-------0-------------0-------0-----|
A-|-3-------2-------3--------------------------------------------|
D-|--------------------------------------------------------------|
11.
E-|-------3---5p3-------3---5p3-------3---5p3-------3---5p3-|
B-|---0-----0-------0-----0-------0-----0-------0-----0-----|
G-|-----0-------------0-------------0-------------0---------|
D-|-2-------------3-------------2-------------1-------------|
A-|---------------------------------------------------------|
D-|---------------------------------------------------------|
15.
E-|----------------------------------------------------------------|
B-|-7-----\3-----3-5-----5-8-----8-7-----7-3-----3-5-----5-3-----3-|
G-|-----0------0-------0-------0-------0-------0-------0-------0---|
D-|---0------0-------0-------0-------0-------0-------0-------0-----|
A-|-5-----\2-------3-------7-------5-------2-------3-------2-------|
D-|----------------------------------------------------------------|
16.                 note:3
E-|----------------------------------------------------------------|
B-|-2---2-3-5---12----12-10-8-\2----2-3--5-6-5-4-5-7-5-4-5-6-5-4-5-|
G-|---^0--------------12----------^0-------------------------------|
D-|----------------^12-------------------5-6-5-4-5-7-5-4-5-6-5-4-5-|
A-|-0---0-2-4---10----10--9-7-\0----0-2----------------------------|
D-|----------------------------------------------------------------|
6.
E-|-------------------------|-------------------------|
B-|-------3-5p3-------3-5p3-|-------3---5p3-------3-2-|
G-|-----------------0--0----|-----0---0---------0-2-0-|
D-|-----0--0------0---------|---0-------------0-------|
A-|---0---------2-----------|---------------0---------|
D-|-0-----------------------|-5-----------------------|
6.
E-|-------------------------|-------------------------|
B-|-------3-5p3-------3-5p3-|-------3---5p3-------3-2-|
G-|-----------------0--0----|-----0---0---------0-2-0-|
D-|-----0--0------0---------|---0-------------0-------|
A-|---0---------2-----------|---------------0---------|
D-|-0-----------------------|-5-----------------------|
3.
E-|-------5p2---0-------2-0-|-----------0----------|
B-|-----------3-------3-----|-------0h3----2--3/5--|
G-|-----------------2-------|-----0--------0-------|
D-|-----0-------------------|---0----------2--3/5--|
A-|---0---------------------|--------------0-------|
D-|-0-------------4---------|-5--------------------|
4.
E-|-------5p2---0-------2-0-|---------0------------|
B-|-----------3-------3-----|-------3------2--3/5--|
G-|-----------------2-------|-----0--------0-------|
D-|-----0-------------------|---0----------2--3/5--|
A-|---0---------------------|--------------0-------|
D-|-0-------------4---------|-5--------------------|
5.
E-|-------5p2---0-------2-0-|-----------0------------|
B-|-----------3-------3-----|-------0h3----2---------|
G-|-----------------2-------|-----0--------0---------|
D-|-----0-------------------|---0----------2-------0-|
A-|---0---------------------|--------------0--0h2h4--|
D-|-0-------------4---------|-5----------------------|
6.
E-|-------------------------|-------------------------|
B-|-------3-5p3-------3-5p3-|-------3---5p3-------3-2-|
G-|-----------------0--0----|-----0---0---------0-2-0-|
D-|-----0--0------0---------|---0-------------0-------|
A-|---0---------2-----------|---------------0---------|
D-|-0-----------------------|-5-----------------------|
3.
E-|-------5p2---0-------2-0-|-----------0----------|
B-|-----------3-------3-----|-------0h3----2--3/5--|
G-|-----------------2-------|-----0--------0-------|
D-|-----0-------------------|---0----------2--3/5--|
A-|---0---------------------|--------------0-------|
D-|-0-------------4---------|-5--------------------|
4.
E-|-------5p2---0-------2-0-|---------0------------|
B-|-----------3-------3-----|-------3------2--3/5--|
G-|-----------------2-------|-----0--------0-------|
D-|-----0-------------------|---0----------2--3/5--|
A-|---0---------------------|--------------0-------|
D-|-0-------------4---------|-5--------------------|
5.
E-|-------5p2---0-------2-0-|---------0------------|
B-|-----------3-------3-----|-------3----2---------|
G-|-----------------2-------|-----0------0---------|
D-|-----0-------------------|---0--------2-------0-|
A-|---0---------------------|------------0--0h2h4--|
D-|-0-------------4---------|-5--------------------|
6.
E-|-------------------------|-------------------------|
B-|-------3-5p3-------3-5p3-|-------3---5p3-------3-2-|
G-|-----------------0--0----|-----0---0---------0-2-0-|
D-|-----0--0------0---------|---0-------------0-------|
A-|---0---------2-----------|---------------0---------|
D-|-0-----------------------|-5-----------------------|
6.
E-|-------------------------|-------------------------|
B-|-------3-5p3-------3-5p3-|-------3---5p3-------3-2-|
G-|-----------------0--0----|-----0---0---------0-2-0-|
D-|-----0--0------0---------|---0-------------0-------|
A-|---0---------2-----------|---------------0---------|
D-|-0-----------------------|-5-----------------------|
17.
E-|-------------0-------3-----3/5-|
B-|-------3-----------------------|
G-|-----------0-------0-----0-----|
D-|-----0---0-------0-----0-------|
A-|---0---------------------------|
D-|-0-------------0---------------|
18.
E-|-------5-------5-------5-------5-|-------7-----7--------9------9-|
B-|-----5-------5-------7-------7---|-----8-----8-------10-----10---|
G-|---7-------7-------7-------7-----|---7-------------9-------------|
D-|---------0---------------0-------|---------0--------------0------|
A-|---------------------------------|-------------------------------|
D-|-0---------------0---------------|-0-------------0---------------|
19.  NOTE 5:
E-|---5-7--9-10---5-7--9-10----5-7--9-10-10-9-10-|
B-|---7-8-10-12---7-8-10-12----7-8-10-12-10-8----|
G-|---7-7--9-12---7-7--9-12----7-7--9-12----9----|
D-|----------------------------------------------|
A-|----------------------------------------------|
D-|-0-----------0------------0-------------------|
20.
E-|------10-------10-------10-|
B-|-----10-------10-------10--|
G-|----11-------11-------11---|
D-|---12-------12-------12----|
A-|----------0----------------|
D-|-0-----------------0-------|
      ^        ^        ^
      These are actually arpeggios (sp?)

Ещё песни с аккордами исполнителя/группы «Adrian Legg»