Crash
Aerosmith
AerosmithCrash Прислать видеоурок
Aerosmith Crash
Добавлено: — , Просмотров: 240 (+1)

  Добавить в избранное

"Nine Lives"
Crash

---------------------------------------------------
---------------------------------------------------
--------------------------------------------------- } 4 times
-3-3-3-3-3-3-6-6-6-6-6-6-6-7-7-7-7-7-7-7-3-3-3-3-3-
---------------------------5-5-5-5-5-5-5-1-1-1-1-1-
Sitting in a castle on the floor with Esmorelda
It's time to:
-------------------------------------------------------------------
-------------------------------------------------------------------
-------------------------------------------------------------------
-----------------3-------------5--------------3--------------------
-5-5-5-5---5---5-1----5--5--5--3-----5--5--5--1------5-5-5-5-5-5---
-3-3-3-3---3---3------3--3--3--------3--3--3---------3-3-3-3-3-3---
CRASH(Losin' my mind,losin' my mind,losin' my mind)Yeh it's time to
-------------------------------------------------------------------
-------------------------------------------------------------------
-------------------------------------------------------------------
----------3-3-3-3--------------------------------------------------
-5-5-5-5--1-1-1-1-3-3-3-3------------5-5-5-5-----------------------
-3-3-3-3----------1-1-1-1------------3-3-3-3-----------------------
CRASH!!!  CRAAAAZYYYY  It's time to  CRASH!!!!!

Ещё песни с аккордами исполнителя/группы «Aerosmith»