Hole in my Soul
Aerosmith
AerosmithHole in my Soul Прислать видеоурок
Aerosmith Hole in my Soul
Добавлено: — , Просмотров: 321 (+0)

 
Добавить в избранное

"Nine Lives"
Hole in my Soul
(Tyler, Perry, Child)

 (2x)
e+-5-----5----|-7-----7----|-8-----8----|-7-----7----|
B+-6-----6----|-6-----6----|-6-----6----|-6-----6----|
G+----5-----5-|----5-----5-|----5-----5-|----5-----5-|
D+------------|------------|------------|------------|
A+------------|------------|------------|------------|
|-5-----5----|-7-----7----|-8-----8----|-7-----5----|
|-6-----6----|-6-----6----|-6-----6----|-6-----6----|
|----5-----5-|----5-----5-|----5-----5-|----5-----5-|
|------------|------------|------------|------------|
|------------|------------|------------|------------|
|------------|------------|------------|------------|
|-5-----5----|-5-----5----|-3-----3----|-3-----3----|
|-5-----5----|-5-----5----|-5-----5----|-5-----5----|
|----4-----4-|----4-----4-|----4-----4-|----4-----4-|
|------------|------------|------------|------------|
|------------|------------|------------|------------|
|------------|------------|------------|------------|
Dsus4    D 
Is it over
C 
Is it over
                   Dsus4 D Dsus4 G 
Cause I'm blowin' out the       flame
G                        Dsus4 D 
Take a walk outside your mind
Am 
Tell me how it feels to be
C 
The one who turns the knife inside of me
G                        Dsus4 D      Am 
Take a look and you will find there's nothing there girl
                  C 
Yeah I swear, I'm telling you girl yeah 'cause
          D#         C                G            G# 
There's a hole in my soul that's been killing me forever
       F             C#           D# 
It's a place where a garden never grows
          D#         C            G                 G# 
There's a hole in my soul, yeah I should have known better
            F             C#              D# 
'Cause your love's like a thorn without a rose
interlude:
D G G G

Ещё песни с аккордами исполнителя/группы «Aerosmith»