Kiss Your Past Goodbye
Aerosmith
AerosmithKiss Your Past Goodbye Прислать видеоурок
Aerosmith Kiss Your Past Goodbye
Добавлено: — , Просмотров: 216 (+1)

 
Добавить в избранное

"Nine Lives"
Kiss Your Past Goodbye

intro:        e---5---5---5---5-----------------------------------------------
B---5---5---5---5-----------------------------------------------
G------------------etc...---------------------------------------
D---------0-----------------------------------------------------
A-0---0-------0-------------------------------------------------
E---------------------------------------------------------------

e-----5-------5------5------5-----------------------------------
B-----5-------5------5------5------5-------5------5------5------
G----------------------------------6-------6------6------6------
D----------------------------------6-------6------6------6------
A--0-------0-------0-----0------4-------4------4------4---------
E---------------------------------------------------------------
  Finders keepers losers weep   down on forty second street
e------2--------2------2------2--------2-----2-----2-----2------
B------2--------2------2------2--------2-----2-----2-----2------
G------2--------2------2------2--------2-----2-----2-----2------
D--4---------4-------4------4--------3-----3-----3-----3--------
A---------------------------------------------------------------
E---------------------------------------------------------------
oh barefoot children cryin'  my oh my
(repeat)
chorus:        Kiss your past goodbye
                    G           F 
Kiss your past goodbye
                    A           D 
Kiss your past goodbye
                    G           F# 
Kiss your past goodbye          yeah yeah yeah

Ещё песни с аккордами исполнителя/группы «Aerosmith»