Magic Touch
Aerosmith
AerosmithMagic Touch Прислать видеоурок
Aerosmith Magic Touch
Добавлено: — , Просмотров: 223 (+0)

 
Добавить в избранное

Magic Touch

C5 B5  A } 2x 
rhythm figure 1(guitar 1):
e------------------------------------------------------------
b------------------------------------------------------------
g-----4p2-----0-2------4p2-----0-2------5-4-----0-5--5p4---
d-----4p2-----0-2------4p2-----0-2------5-4-----0-5--5p4---
a--5-------5-------5--------5-------5--------5------------5-
E------------------------------------------------------------

e---------------------
b----------0--0-------
g--4p2-----0--0-------
d--4p2----------------
a-------5-------------
E---------------------
Repeat that when necessary.
Before the verse the second guitar plays(what sounds like) this:
guitar 2(w/distortion):
e----------------------------------------------------12------
b--10------/---12------/--10----12----13-----15------15b---
g--12b----r/---15b----r/--12b-r-15b-r-15b-r--17b--r---------
d------------------------------------------------------------
a------------------------------------------------------------
E------------------------------------------------------------
F 
I tried to ...
              G              E 
but ...
             Am    F 
I need your magic touch
 C         G 
...
 F        Em         C      G 
I got ..
 Am      F 
....
C         G 
burnin' slow
F 
You ...
Em 
let go
Solo
C 
You never ...
F                    G 
til ..
C                     F 
I'm ...
                    G 
gonna ...
Some of the solo at the end is just a variation of what the second
guitar plays in the intro.

Ещё песни с аккордами исполнителя/группы «Aerosmith»