Tastes of India
Aerosmith
Aerosmith Tastes of India
Добавлено: — , Просмотров: 203 (+1)

 
Добавить в избранное

"Nine Lives"
Tastes of India

      God I love the sweet taste of India   Lingers on the tip...
E--------------------------------------------------------------------4{-----|
B------------------------------------------------------------------5--v--(5)|
G---------------------1------2---4---2-1---------------------1-2\4----------|
D-----2b-r-2-2b-r--2---------------------2-----2b-r-2-2b-r-2----------------|
A---------------------------------------------------------------------------|
E--0----------------------------------------0-------------------------------|
continue with similar.
Lingers on the tip of my tongue
Gotta love the sweet taste of India
Blame it on the beat of the drum
God I love the sweet taste of India
Lingers on the tip of my tongue
Gotta know that what's gotten into ya
Any cat man do when it's done
(The verse is just the E string and an F  chord)
   F 
E--1--|
B--1--|
G--2--|
D--3--|
A-----|
E-----|
E 
Oh yeah she's got that kind of love incense
                           F 
That lives in her back room
And when it mixes with the funk my friend
It turns into perfume
 When you are born you're afraid of the darkness
E---------------------------------------------------|
B---------------------------------------------------|
G---------2--------------2-----------2----------2---|
D------2--------------2-----------2----------2------|
A--0------------------------------------------------|
E---------------3-----------1------------3----------|
And then vou're afraid of the light
But I'm not afraid when I dance with my shadow
    D E                  A       
B-----------------------------------------|
G---7\9-9-9--7\9-9--7---------------------|
D---7\9-9-9--7\9-9--7----7------5---------|
A---5\7-7-7--5\7-7--5----7------5---------|
E------------------------5------3---------|
This time I'm gonna get it right
To think of what I'll get tonight
Just lookin' for a little taste
She'll steal the smile right off your face
At some point the rhythm guitar plays a heavily distorted
EF5 
Also at some point, F#  and F  chords are arpeggiated, which lookssomething
like this:
  F#                                     F 
E------------------------------------------------------------|
B------------------------------------------------------------|
G------------3------------------3-----------------2----------|
D-------4------4---4-------4------4---4------3------3---3----|
A-----4---4------4-------4---4------4------3---3------3------|
E--2------------------2------------------1-------------------|
This is followed by this little lead fill:
 lead gtr(rt.spkr.):
E-------------------------------------------|
B-------------------------------------------|
G--10-b-r--8\10/8---6-b-r-5\6/5--4\5/3------|
D-------------------------------------------|
A-------------------------------------------|
E-------------------------------------------|
and then:
  Em 
  |--rake------|
E--0---------------|
B----0-------------|
G------0-----------|
D--------2---------|
A----------2-------|
E------------0-----|

Ещё песни с аккордами исполнителя/группы «Aerosmith»