The Farm
Aerosmith
AerosmithThe Farm Прислать видеоурок
Aerosmith The Farm
Добавлено: — , Просмотров: 194 (+0)

 
Добавить в избранное

"Nine Lives"
The Farm

intro:        EmC7 
EmC7 

Joe Perry plays this during the C7 :
e-----------------
B-----------------
G-3-3-3-3-3-3-2-0-
D-----------------
A-----------------
E-----------------
verse:
E--7--7--7------6--6--5--------------------------------|
B--5--5--8--5---5--5--5--8-8b----r~~~--------------|
G------------------------------------------------------|
D------------------------------------------------------|
A------------------------------------------------------|
E------------------------------------------------------|
repeat that several times, then play this:
E--7--7--7------6--6--5--------------------------------|
B--5--5--8--5---5--5--5--8--5------------------|
G------------------------------------------------------|
D------------------------------------------------------|
A------------------------------------------------------|
E------------------------------------------------------|

A B        C 
There's a cockroach in my coffee
A B        C 
There's a needle in my arm
A B        C 
And I feel like New York City
A B Em 
Take me to the farm

(and I think the Buckle up straight jack part starts with:)
A G A                  G 
Buckle up straightjack sanity is such a drag
etc...

Ещё песни с аккордами исполнителя/группы «Aerosmith»