Walk This Way
Aerosmith
AerosmithWalk This Way Прислать видеоурок
Aerosmith Walk This Way
Добавлено: — , Просмотров: 456 (+2)

  Добавить в избранное

Walk This Way

bass-tablature:    G-|---|----------------------|---------------------|
D-|---|----------------------|---------------------|
A-|-0-|-3--3-13----------1---|-3----13--------1--1-|
E-|---|-----------01-13-3--3-|---------01--3----3--|

G-|----------------------|---------------------|
D-|----------------------|---------------------|
A-|-3----13----------1---|-3----13--------1--1-|
E-|-----------01--3-3--3-|---------01--3----3--|

G-|----------------------|---------------------|
D-|----------------------|---------------------|
A-|-3----13----------1---|-3--3-13--------1--1-|
E-|-----------01--3-3--3-|----------1--3----3--|

G-|----------------------|-----------------|
D-|----------------------|-----------------|
A-|-3----13----------1---|-3----13-------0-|
E-|-----------01-13-3--3-|----------0-3----|

G-|---------------|------|------|---------------|
D-|----2-----2----|--0/--|--0/--|----2-----2----|
A-|-012---012-----|--/0--|--/0--|-012---012---0-|
E-|-------------0-|------|------|---------------|

G-|----------------------|---------------------|
D-|----------------------|---------------------|
A-|-3----13----------1---|-3----13--------1--1-|
E-|-----------01-13-3--3-|---------01--3----3--|

G-|----------------------|---------------------|
D-|----------------------|---------------------|
A-|-3--3-13----------1---|-3--3-13--------1--1-|
E-|-----------01--3-3--3-|---------01--3----3--|

G-|----------------------|---------------------|
D-|----------------------|---------------------|
A-|-3--3-13----------1---|-3----13--------1--1-|
E-|-----------01--3-3--3-|---------01-13-3--3--|

G-|----------------------|---------------------|
D-|----------------------|---------------------|
A-|-3--3-13----------1---|-3--3-13--------1--1-|
E-|-----------01--3-3--3-|---------01--3----3--|

G-|----------------------------3------|------|
D-|----------------1233333-3335-531---|--0/--|
A-|-3---3---3--3-33----------------31-|--/0--|
E-|-----------------------------------|------|

G-|----------------------|-----------------------|
D-|----------------------|------------------1314-|
A-|-3--3-13----------1---|-3-3-3/-13--131315-----|
E-|-----------01--3----3-|-----------------------|

G-|----------------------|-----------------|
D-|----------------------|-----------------|
A-|-3--3-13----------1---|-3--3-13-------0-|
E-|-----------01-13-3--3-|----------0-3----|

G-|---------------|------|------|---------------|
D-|----2-----2----|--0/--|--0/--|----2-----2----|
A-|-012---012-----|--/0--|--/0--|-012---012---0-|
E-|-------------0-|------|------|---------------|

G-|----------------------|---------------------|
D-|----------------------|---------------------|
A-|-3--3-13----------1---|-3--3-13--------1--1-|
E-|-----------01-13-3--3-|---------01--3----3--|

G-|----------------------|---------------------|
D-|----------------------|---------------------|
A-|-3----13----------1---|-3--3-13--------1--1-|
E-|-----------01--3-3--3-|---------01--3----3--|

G-|----------------------|---------------------|
D-|----------------------|---------------------|
A-|-3----13----------1---|-3----13--------1--1-|
E-|-----------01--3-3--3-|----------1--3----3--|

G-|----------------------|-----------------|
D-|----------------------|-----------------|
A-|-3----13----------1---|-3--3-13-3-----0-|
E-|-----------01-13-3--3-|----------0-03---|

G-|---------------|------|------|---------------|
D-|----2-----2----|--0/--|--0/--|----2-----2----|
A-|-012---012-----|--/0--|--/0--|-012---012---0-|
E-|-------------0-|------|------|---------------|

G-|----------------------|---------------------|
D-|----------------------|---------------------|
A-|-3----13----------1---|-3----13--------1--1-|
E-|-----------01-13-3--3-|---------01--3----3--|

G-|----------------------|---------------------|
D-|----------------------|---------------------|
A-|-3----13----------1---|-3----13--------1--1-|
E-|-----------01--3-3--3-|---------01--3----3--|

G-|----------------------|---------------------|
D-|----------------------|---------------------|
A-|-3----13----------1---|-3----13--------1--1-|
E-|-----------01--3-3--3-|----------1--3----3--|

G-|----------------------|---------------------|
D-|----------------------|---------------------|
A-|-3----13----------1---|-3----13--------1--1-|
E-|-----------01-13-3--3-|---------01--3----3--|

G-|----------------------------3------|------|
D-|----------------1233333-3335-531---|--0/--|
A-|-3---3---3--3-33----------------31-|--/0--|
E-|-----------------------------------|------|

G-|----------------------------3------|
D-|----------------1233333-3335-531---|
A-|-3---3---3--3-33----------------31-|
E-|-----------------------------------|

G-|----------------------------------------12-|
D-|-----------------10------------------123---|
A-|-3---3---3---3/10--109---------------------|
E-|-------------------------1---1---1---------|

G-|----------------------|---------------89-|
D-|----------------------|-------10--8910---|
A-|-3--3-13----------1---|-3--3/---10-------|
E-|-----------01-13-3--3-|------------------|

G-|----------------------|-----------------|
D-|----------------------|-----------------|
A-|-3--3-13----------1---|-3--3-13-------0-|
E-|-----------01-13-3--3-|----------0-3----|

G-|---------------|-------------------|
D-|----2-----2----|----2-----2--------|
A-|-------012-----|-------012---0-(0)-|
E-|-034---------0-|-034---------------|...

Ещё песни с аккордами исполнителя/группы «Aerosmith»