Zu spaet!
Aerzte
AerzteZu spaet! Прислать видеоурок
Aerzte Zu spaet!
Добавлено: — , Просмотров: 291 (+1)

 
Добавить в избранное

Zu spaet! Die Aerzte

Intro:        G Am C D     G Am C D 
  G           Am            C                D                          F 
-----------------|----------------|----------------|-----------------------|---
-----------------|----------------|----------------|-----------------------|---
--0--0--2--0--0--|--2--2--4--2--2/|--5--5--7--5--5/|--7--7h9--7------------|---
--0-----------0--|--2-----------2/|--5-----------5/|--7----------10--9--7--|--3
-----------------|----------------|----------------|-----------------------|--3
-----------------|----------------|----------------|-----------------------|--1

other suggestion: (works better on a acustic guitar)
-----------------|-----------------|-----------------|--2--0--------------|---
-----------------|--1-----0--------|--1--1--3--1--1--|--3-----3--1--0-----|---
--0--0--2--0--0--|--2--2-----2--2--|--0-----------0--|--2--------------2--|---
--0-----------0--|--2--2--------2--|--2-----------2--|--0-----------------|--3
--2--------------|--0--------------|--3--------------|--------------------|--3
--3--------------|-----------------|-----------------|--------------------|--1
F 
(1)
        Warum hast du mir das angetan?
FBb 
Ich hab's von einer Bekannten erfahr'n,
BbF 
du hast jetzt einen neuen Freund,
FC 
zwei Wochen lang hab ich nur geweint.
    C  \   FF            CC 
Jetzt schaust du weg, gruesst mich nicht mehr
  Bb . . . . . . . . . . . . . . 
und ich lieb' dich immer noch so sehr.
. . . . .Bb \   FF         CC 
Ich weiss was dir an ihm gefaellt
   Bb . . . . . . . . . . . . . . 
ich bin arm und er hat Geld.
Gm 
Du liebst ihn nur, weil er ein Auto hat
Gm GmC  x  C             . . . . . . 
und nicht wie ich ein klappriges Damenrad.
Bb . . . . . . . D . . . . . . . . 

           G            Am 
Chorus:        Doch eines Tages werd' ich mich raechen,
C              D 
ich werd die Herzen aller Maedchen brechen,
          G             Am 
dann bin ich ein Star, der in der Zeitung steht,
     C                D 
dann tut es dir leid, doch dann ist es zu spaet,
       F 
zu spaet.

(2)
        Du bist mit ihm im Theater gewesen,
ich hab dir nur 'Fix und Foxi' vorgelesen.
Du warst mit ihm essen, natuerlich im 'Ritz',
bei mir gab's nur Currywurst mit Pommes Frites.
Der Gedanke bringt mich ins Grab
er kriegt das, was ich nicht hab.
Ich hasse ihn, wenn es das gibt,
so wie ich dich vorher geliebt.
Ich wollte ihn verpruegeln, deinen Supermann,
ich wusste nicht, das er auch Karate kann.

Chorus:....
zu spaet, zu spaet, zu spaet...

(slower)
Eines Tages werd ich mich raechen,
ich werd die Herzen aller Maedchen brechen,
dann bin ich ein Star und du laeufst hinter mir her,
doch dann ist es zu spaet, dann kenn' ich dich nicht mehr,
zu spaet......

I use the moveable F  chord (133211) to play most of the chords
/ (\) slide up (down) whole chord
x     loosen your fingers and strum
.     strum
The verses are played with only a few strums.
I tried to  place the chords exactly where they are played.

The intro theme is also played in the chorus.

Hope it works.

Ещё песни с аккордами исполнителя/группы «Aerzte»