6 To 8
Afi
Afi6 To 8 Прислать видеоурок
Afi 6 To 8
Добавлено: — , Просмотров: 249 (+0)

  Добавить в избранное

6 To 8

Intro:        |---------------------------------------------------------------------|
|---------------------------------------------------------------------|
|--------------------2------2---4p2---------2-----2---4p2---------2---|
|---9---5---7----------2-------------2---------2-------------2----x---|
|---x---x---x---x------------------------3----------------------------|
|---------------------------------------------------------------------|

Verse:        |-------------------------5---|
|--10---5----8---7--------7---|
|---9---5----7---7--------7---|
|---9---5----7---7--------7---|
|-------------------------5---|
|-------------------------5---|

Chorus:                                                                    Repeat, end 2nd phrase with:
|---3---3--------x--------------------------------5-----------------------------------------|
|---5---3--------x--------------------------------5----x------------------------------------|
|---5---4--------x---7(slide)9---7(slide)7--------6----4------------12---11-----------------|
|---5---5---4----2--------------------------------7----5------------------------------------|
|---3---5---5----2---5(slide)7---5(slide)5--------7----2------------10----9-----------------|
|---3---3---2----x---x(slide)x---x(slide)x--------5------------------x----x-----------------|

2nd Verse:    |---------------------------------------------------------------|
|--10---5---8----7----10---12-----5----6----8----8---10-----7---|
|---9---5---7----7-----9----9----5---5---5---7---7----7---------|
|---9---5---7----7-----9----9----5---5---5---7---7----7---------|
|---------------------------------------------------------------|
|---------------------------------------------------------------|

Break:        |--------------------------------------------------------5--------|
|--------------------------------------------------------7--------|
|---2---2-----2--4p2----------2---2-----2--4p2-----------7--------|
|---2------2-------------2----2-------2------------2-----7----4---|
|---x-------------------------3--------------------------5----5---|
|--------------------------------------------------------5----7---|

The end of the song is just the chorus without the stop.Solo:
|---------------------------------------------------------------------------7-------|
|---12-----------------12-------12--12-12-12-12-12---x--x--x--x------8--------8-----|
|---14fb14--12--14------12--12--12--12-12-12-12--7---7--7--9--9--------9--------9---|
|-----------------------------------------------------------------------------------|
|-----------------------------------------------------------------------------------|
|-----------------------------------------------------------------------------------|

|---------------------------------------x----x---x----x---x---x----x---x---x---x----|
|--------------------------x--x--x--x---10--10--10---12---12--12--12--12---17--17---|
|---9--12--14slide16--12---9--9--9--9--9--------------------------------------------|
|-----------------------------------------------------------------------------------|
|-----------------------------------------------------------------------------------|
|-----------------------------------------------------------------------------------|

|----x---x---x--15--15--15---14--14---15---17---14--14---15-------15-------------15--15---15--|
|---17--17--17--12--12--12---12--12---12---15---15--15---17------------17---17---17--17---17--|
|--------------------------------------------------------------16-----------16---16--16---16--|
|---------------------------------------------------------------------------------------------|
|---------------------------------------------------------------------------------------------|
|---------------------------------------------------------------------------------------------|

|---15--15--15---14---15---|
|---12--12--12---12---12---|
|--------------------------|
|--------------------------|
|--------------------------|
|--------------------------|

Ещё песни с аккордами исполнителя/группы «Afi»