At A Glance
Afi
AfiAt A Glance Прислать видеоурок
Afi At A Glance
Добавлено: — , Просмотров: 302 (+1)

  Добавить в избранное

At A Glance

*Note: Exact amount of strums not shown and palm muting not shown*

Intro:        |----------------------------------------------------|
|----------------------------------------------------|
|----------------------------------------------------|
|-7--8--7--8-7-8-10---7--8--7--8-7-8--7--8--7--8--7--|
|-0--0--0--0-0-0-0----0--0--0--0-0-0--0--0--0--0--0--|
|----------------------------------------------------|

Verse 1:    |-------------------------------------------------------|
|-------------------------------------------------------|
|-10-7---10---10-7---10--5---10-7---10---5--6--7---7----|
|-10-7---10---10-7---10--5---10-7---10---5--6--7---7-8--|
|-8--5---8----8--5---8---3---8--5---8----3--4--5---5-8--|
|-8--5---8----8--5---8---3---8--5---8----3--4--5---5-6--|

Chorus 1:    |---------------------------------------|
|---------------------------------------|
|-----8-------5-------8---10------------|
|-5---8---8---5---5---8---10---8--3--5--|
|-5---6---8---3---5---6---8----8--3--5--|
|-3---6---6---3---3---6---8----6--1--3--|

Verse 2:    |------------------------------------------------------------|
|------------------------------------------------------------|
|-10-7-----10---10-7-----10-5---10-7-----10---5--6--7---7----|
|-10-7---8-10---10-7---8-10-5---10-7---8-10---5--6--7---7-8--|
|-8--5---8-8----8--5---8-8--3---8--5---8-8----3--4--5---5-8--|
|-8--5---6-8----8--5---6-8--3---8--5---6-8----3--4--5---5-6--|

Chorus 2: Same as Chorus 1Bridge:
|-------------------------------------------------|
|-------------------------------------------------|
|-----8-------------------------------------------|
|-5---8---7------0--7--8--7-----------0--7--8--7--|
|-5---6---7------------------6--8--6--------------|
|-3---6---5---------------------------------------|

|-----------------------------------------------------------------------------|
|-----------------------------------------------------------------------------|
|-----------------------------------------------------------------------------|
|-------10--0--7--8--7-----------0--7--8--7--------10--0--7--8--7-----------0-|
|-6--8------------------6--8--6--------------6--8------------------6--8--6----|
|-----------------------------------------------------------------------------|

|-------------------------------------------------------------------------|
|-------------------------------------------------------------------------|
|-------------------------------------------------------------------------|
|-7--8--7--------10--0--7--8--7-----------10---7---0--7--8--7-----------0-|
|----------6--8------------------6--8--6--10---7---------------6--8--6----|
|-----------------------------------------8----5--------------------------|

|-----------------------------------------------------------------------|
|-----------------------------------------------------------------------|
|--------------------------------------------------------------------7--|
|-7--8--7--------10--0--7--8--7-----------10---7---10---7---10---7---7--|
|----------6--8------------------6--8--6--10---7---10---7---10---7---5--|
|-----------------------------------------8----5---8----5---8----5---5--|

Chorus 3:
Same as Chorus 1 but twice as longSlow
Breakdown: Repeat this 8 times
|-----------------|
|-----------------|
|-----------------|
|-------------7---|
|-1---5---3---5---|
|-3---6---1-------|

End of Song:    |----------------------------------------------------------------------------|
|----------------------------------------------------------------------------|
|-12---15---14---17---19---20---17---15--14--12--15--14--12--15--14--12--10--|
|-X----X----X----X----X----X----X----X---X---X---X---X---X---X---X---X---X---|
|-10---13---12---15---17---18---15---13--12--10--13--12--10--13--12--10--8---|
|----------------------------------------------------------------------------|

|-----------------------------------|
|-----------------------------------|
|-14---12---1210--10/14---147-----|
|-X----X----X-X---X-/X----X-X--5--|
|-12---10---108---8-/12---125--5--|
|--------------------------------3--|

Ещё песни с аккордами исполнителя/группы «Afi»