Bleed Black
Afi
AfiBleed Black Прислать видеоурок
Afi Bleed Black
Добавлено: — , Просмотров: 321 (+0)

  Добавить в избранное

Bleed Black

intro
|--------------------------------------------------------|
|--------------------------------------------------------|
|------5----------5----------5----------5-5-5--5-5-5-5-3-|
|-1---/-----1----/-----1----/-----1----/-----------------|

verse (x3)
|--------------------------------------------------------------------------|
|--------------------------------------------------------------------------|
|-------------------------------------------------------8-8-8-8-8--8-8-8---|
|-5-5-5--5-5-5-5-3--5-5-5--5-5-5-5-3--5-5-5--5-5-5-5-3-------------------3-|

pre chorus
|---------------------------------------------------------|
|---------------------------------------------------------|
|-8---3---7---8---3---5-7-8---3----------------3-3-3--3-3-|
|---5---5---5---5---5-------5---5-3-5-1-1-1--1------------|

|---------------------------------------------------------|
|---------------------------------------------------------|
|-8---3---7---8---3---5-7-8---3----------------3-3-3--3-3-|
|---5---5---5---5---5-------5---5-3-5-1-1-1--1------------|

|--------------------------------------|
|--------------------------------------|
|-------------/10-10-10-10-10-10-10-10-|
|-3-3-3-3-3-3--------------------------|

chorus
|-----------------------------------------|
|-----------------------------------------|
|-3-3-3--3--------------------------------|
|----------3-3-3--3-3-1-1-1--1-5-5-5--5-5-|

|-----------------------------------------|
|-----------------------------------------|
|-3-3-3--3--------------------------------|
|----------3-3-3--3-3-5-5-5-5-5-5-5-5-5---|

|-----------------------------------------|
|-----------------------------------------|
|-3-3-3--3--------------------------------|
|----------3-3-3--3-3-1-1-1--1-5-5-5--5-5-|

|---------------------------------|
|---------------------------------|
|-3-3-3--3------------8---3----12-|
|----------3-3-3--3-3---5---5/----|

repeat verse
repeat pre chorus
repeat chorus

bridge (wait 8 measures)
|-------------------------------|
|-/7--7-6--6-5------------------|
|-------------------5-5-5-7-5---|
|---------------5/7-----------8-|

|------------------------------------------------|
|------------------------------------------------|
|-------------3-3-3-5-3-------------/7-7-7-7-7-7-|
|-1-1-1-1-3/5-----------5-0-0-0-0-0--------------|

|-------------------------------------------------|
|-------------------------------------------------|
|-------------------------------------5-5-5-7-5---|
|-5-5-5-5-5-5-4-4-4-4-4-4-3-3-3-3-5/7-----------8-|

|---------------------------------------------------|
|---------------------------------------------------|
|-------------3-3-3-5-3-------------/7-7-7/11-11-11-|
|-1-1-1-1-3/5-----------5-0-0-0-0-0-----------------|

|----------------------------------------------------------------------------|
|----------------------------------------------------------------------------|
|-1210/12-12-12-12-12-12-12-12-12-12-12-12-12-12-12-|
|----------------------------------------------------------------------------|

repeat chorus twice

substitute this fill at the end of first chorus
|----------------------------------------------------|
|----------------------------------------------------|
|-3-3-3--3------------10/12-12-10-10-8-8-7-7-5/7-7-7-|
|----------3-3-3--3-3--------------------------------|

Ещё песни с аккордами исполнителя/группы «Afi»