God Called In Sick Today
Afi
AfiGod Called In Sick Today Прислать видеоурок
Afi God Called In Sick Today
Добавлено: — , Просмотров: 256 (+1)

  Добавить в избранное

God Called In Sick Today

bass (i play the whole thing completely different live...
but this is what i did in the studio)

intro/verse 1: wait until the downbeat before "go ascend..."
|----------------------------------------12-(harmonic)---|
|--------------------------------------------------------|
|--------------------------------------------------------|
|--------------------------------------------------------|

chorus: first time
every other chorus
|------------------------------------------------------------------|---------|-----------------------------|
|------------------------3-5--3------------------------3-5---------|---------|-----------------------------|
|--------------------3-5---------6-5-----------------------3-5--6--|---------|--5--------------------------|
|--6----8---6-5-3--------------------6----8---6-5-3----------------|--6-5-3--|----8------------------------|

then repeat chorus

verse 2:
|----------------------------------------------------------------------------------------------|
|-------12-10-8---------------------------------------12------8-7----------------------10-8-7--|
|--/10-----------8-10-8-------8-10-12---6-8-6-8---10-------8------8------8-10-12---6-----------|
|-----------------------8--10----------------------------------------10------------------------|

|--------------------------------------------------------------------------------------------------------|
|-------8----8-10------7---7-8---------------------10-8-7------8----8-10-----7---7-8----------7----------|
|--10-----10-------8-----8----------8----8-10--6-----------10----10-------8----8---------8-10---6---5----|
|-------------------------------10-----10---------------------------------------------10--------------8--|

interlude:
|----------------------------------------------------------------------------------------------------|
|----------------------------------------------------------------------------------------------------|
|------12-10-8---------------3-5/7----8-8/10-8-------8-10/12----7---7-8-7-----3--5--7------10--8--7--|
|--10-----------8-10-8-3--5---------6------------10----------8----8--------5------------6------------|

|-----------------------------------------------------------------------------------------------------------|
|---------------------------10----10-12-10---------------------------------------------------------------8--|
|------8-10-12----7-8-10/12----12----------12-13-12-10-8-7-------------------------------------3--5--7--8---|
|--10----------8-------------------------------------------8-8/10--8-10--10/12-8--10/12-8---5---------------|

|---------------------------------|
|---------------------------------|
|-----------------5-6-8--------6--|
|--1--3-----1--6---------1--3-----|

Ещё песни с аккордами исполнителя/группы «Afi»