Sacrifice Theory
Afi
AfiSacrifice Theory Прислать видеоурок
Afi Sacrifice Theory
Добавлено: — , Просмотров: 293 (+0)

  Добавить в избранное

Sacrifice Theory

INTRO
e-|-----7----------7-------7---7---7--7--7--7----|
B-|-----7----7-----7-------7---7---7--7--7--7----|
G-|-----7------7---7-------8---8---8--8--8--8----|
D-|-----9--------9-9-------9---9---9--9--9--9----|
A-|-----9----------9-------7---9---9--9--9--9----|
E-|-----7----------7-------7---7---7--7--7--7----|

VERSE x3 x1
e-|----------------------------|--------------------------|
B-|----------------------------|--------------------------|
G-|----------------------------|--------------------------|
D-|-----9-9-9-9----5-5--7-7----|----5-5-5-5----7-7-7-7----|
A-|-----9-9-9-9----5-5--7-7----|----5-5-5-5----7-7-7-7----|
E-|-----7-7-7-7----3-3--5-5----|----3-3-3-3----5-5-5-5----|

CHORUS
e-|--------------------------------------------------|
B-|--------------------------------------------------|
G-|-----------------------------------7--------------|
D-|---5-5---7-7---9-9-9-9-----5-5---9-7---7-7--5-5---|
A-|---5-5---7-7---9-9-9-9-----5-5---9-5---7-7--5-5---|
E-|---3-3---5-5---7-7-7-7-----3-3---7-----5-5--3-3---|

BRIDGE BRIDGE OUTRO
e-|---------------------------|-----------------------|
B-|---------------------------|-----------------------|
G-|---------------7-7---------|-----------------------|
D-|---9-9---5-5---7-7---7-7---|--5--4--2----5-5--7-7--|
A-|---9-9---5-5---5-5---7-7---|--5--4--2----5-5--7-7--|
E-|---7-7---3-3---------5-5---|--3--2--0----3-3--5-5--|

Ещё песни с аккордами исполнителя/группы «Afi»