The Leaving Song
Afi
AfiThe Leaving Song Прислать видеоурок
Afi The Leaving Song
Добавлено: — , Просмотров: 347 (+1)

 
Добавить в избранное

The Leaving Song

 *note
|-----|
|-----|
|-----|
|--0--|
|--0--|
|--2--l

Em        G             D 
Walked away.. heard them say..
           Am              C 
Poisoned hearts will never change..
 G    (*note)   Em 
Walk away, again..
Em        G          D 
Turned away, in disgrace..
         Am        c 
Felt the chill upon my face..
G       (*note)   Em 
Cooly climb within..
Am            C 
Hard to notice..
B5          Am 
Gleaming from the sky..
C           Am               D 
When you're staring at the cracks..
Em          G 
Hard to notice..
D    Am     C 
What is passing by..
G   (*note)    Em 
With eyes lowered..
Em            G           D 
You Walked away.. heard them say..
           Am              C 
Poisoned hearts will never change..
 G    (*note)   Em 
Walk away, again..

(Игpaeм кaк и в кyплeтe, тoлькo cтpyны пpиглyшeны)

All the cracks they lead, right to me..
and, All the cracks will crawl right through me..
All the cracks they lead, right to me..
and, All the cracks will crawl right through me..
And they fell apart...
Em        G             D 
As I Walk away.. heard them say..
           Am              C 
Poisoned hearts will never change..
 G    (*note)   Em 
Walk away, again..
Em        G          D 
Turned away, in disgrace..
         Am        c 
Felt the chill upon my face..
G       (*note)   Em 
Cooly climb within..

(solo)
|------------------------------------------------------------------7--7--|
|--5------5-5/7----3----3--8/10-s-7----7--8----5---12-10----8--10--------|
|----4--4--------4----4---------4----4-------4---(0)------0---0---0------|
|------------------------------------------------------------------------|
|------------------------------------------------------------------------|
|------------------------------------------------------------------------|

|--8p7------7-------8------7-----7----------7-------8------7-----7-------|
|---------8---8---8------8---8-----8------8---8---8------8---8-----8-----|
|-------9-------9------9-------9--------9-------9------9-------9---------|
|------------------------------------------------------------------------|
|------------------------------------------------------------------------|
|------------------------------------------------------------------------|

Ещё песни с аккордами исполнителя/группы «Afi»