The Lost Souls
Afi
AfiThe Lost Souls Прислать видеоурок
Afi The Lost Souls
Добавлено: — , Просмотров: 265 (+1)

  Добавить в избранное

The Lost Souls

Intro:        e|----------------------------------------------------------|
B|----------------------------------------------------------|
G|---------------------------(pm)---------------------(pm)--|
D|--------7----9----------7---5-------------7------9---7----|
A|-7-10-9---10----7-10-9------5---7--10--9-----10------7----|
E|----------------------------3------------------------5----|

Verse:        e|----------------------------------|
B|----------------------------------|
G|--7--/10----5--/7----3----3-------|
D|--7-/-10----5-/-7----3----3-------|
A|--5/--10----3/--5----1----5-------|
E|----------------------------------|

Chorus:        e|----------------|
B|----------------|
G|--7-----3---5---|
D|--7--3--3---5---|
A|--5--3--1---3---|
E|-----1----------|

Octave part (after first chorus):
e|--------------------------------------------------------|
B|--------------------------------------------------------|
G|--7-7-7-7--10-10-10-10--12-12-12-12--14-14-14-14--------|
D|--------------------------------------------------------|
A|--5-5-5-5---8--8--8--8--10-10-10-10--12-12-12-12--------|
E|--------------------------------------------------------|

Octave part (after second chorus):
e|--------------------------|
B|--------------------------|
G|--7-(hold)-----14---------|
D|--------------------------|
A|--5------------12---------|
E|--------------------------|

Solo:        e|-----------------------13-13-13p12-12-13-------------12-13---|
B|------------10--11--13-------------------13--13--15----------|
G|--9--10--12--------------------------------------------------|
D|-------------------------------------------------------------|
A|-------------------------------------------------------------|
E|-------------------------------------------------------------|

e|--13-13-13p12-12-13--------------12-13-------------12h13-----|
B|--------------------13--13-13p11-----------------------------|
G|-------------------------------------------------------------|
D|-------------------------------------------------------------|
A|-------------------------------------------------------------|
E|-------------------------------------------------------------|

"Take my hand..."
e|-----------------------------------------------------|
B|-----------------------------------------------------|
G|--7-7-7-7--10-10--12-12---14-14----3-3-3-3--5-5-5-5--|
D|-----------------------------------3-3-3-3--5-5-5-5--|
A|--5-5-5-5--8--8---10-10---12-12----1-1-1-1--3-3-3-3--|
E|-----------------------------------------------------| } X2

"I will, I'll sleep...":
e|------------------------------------------------|
B|------------------------------------------------|
G|--7-7--7-7--7-7--7-7--7-7--14-14--14-14--14-14--|
D|------------------------------------------------|
A|--5-5--5-5--5-5--5-5--5-5--12-12--12-12--12-12--|
E|------------------------------------------------|

Outro:        e|--------------|
B|--------------|
G|-----7--------|
D|--------------|
A|-----5--------|
E|--------------| Strum this octave until end

Ещё песни с аккордами исполнителя/группы «Afi»