This Celluloid Dream
Afi
AfiThis Celluloid Dream Прислать видеоурок
Afi This Celluloid Dream
Добавлено: — , Просмотров: 375 (+0)

  Добавить в избранное

This Celluloid Dream

E|----------------------------------------------|
B|----------------------------------------------|
G|-66-xx-66-55-66-xx-66-55-66-xx-66-55-66-5-555-|
D|-88-xx-88-66-44-xx-44-66-88-xx-88-66-44-6-666-|
A|----------------------------------------------|
E|----------------------------------------------|

E|------------------------------------------------|
B|------------------------------------------------|
G|-3-3--66----------66-----3-3--66----------66----|
D|-3-3--66-66--4-4--66-66--3-3--66-66--4-4--66-66-|
A|-1-1--44-66--4-4--44-66--1-1--44-66--4-4--44-66-|
E|---------44--2-2-----44----------44--2-2-----44-|

E|--------------------------------|
B|---77776-----------77776-9-76---|
G|-----------66685--------------6-|
D|-88------88------88-------------|
A|--------------------------------|
E|--------------------------------|
(palm muted)                               (open)
E|--------------------------------------------------|
B|--------------------------------------------------|
G|-33333---------------------33333------------6-666-|
D|-33333-666666-44444-666666-33333-666666-4-4-6-666-|
A|-11111-666666-44444-666666-11111-666666-4-4-4-444-|
E|-------444444-22222-444444-------444444-2-2-------| } X2

E|------------------------------------------------|
B|------------------------------------------------|
G|-3-3--66----------66-----3-3--66----------66----|
D|-3-3--66-66--4-4--66-66--3-3--66-66--4-4--66-66-|
A|-1-1--44-66--4-4--44-66--1-1--44-66--4-4--44-66-|
E|---------44--2-2-----44----------44--2-2-----44-|
(palm muted)                               (open)
E|--------------------------------------------------|
B|--------------------------------------------------|
G|-33333---------------------33333------------6-666-|
D|-33333-666666-44444-666666-33333-666666-4-4-6-666-|
A|-11111-666666-44444-666666-11111-666666-4-4-4-444-|
E|-------444444-22222-444444-------444444-2-2-------| } X2

E|-------------------------------------------------------------------------|
B|-------------------------------------------------------------------------|
G|----------66666666-----------------------------66666666-55555555---------|
D|-88888888----------66666666-88888888--88888888------------------88888888-|
A|-------------------------------------------------------------------------|
E|-------------------------------------------------------------------------| } X2

E|---------------------------------|
B|---------------------------------|
G|-33-3333---------66-6666---------|
D|-33-3333-44-4444-66-6666-66-6666-|
A|-11-1111-44-4444-44-4444-66-6666-|
E|---------22-2222---------44-4444-| } X2

E|------------------------------------------------|
B|------------------------------------------------|
G|-3-3--66----------66-----3-3--66----------66----|
D|-3-3--66-66--4-4--66-66--3-3--66-66--4-4--66-66-|
A|-1-1--44-66--4-4--44-66--1-1--44-66--4-4--44-66-|
E|---------44--2-2-----44----------44--2-2-----44-|
(palm muted)                               (open)
E|--------------------------------------------------|
B|--------------------------------------------------|
G|-33333---------------------33333------------6-666-|
D|-33333-666666-44444-666666-33333-666666-4-4-6-666-|
A|-11111-666666-44444-666666-11111-666666-4-4-4-444-|
E|-------444444-22222-444444-------444444-2-2-------| } X2

E|-------------------------------------------------------------------------|
B|-------------------------------------------------------------------------|
G|----------66666666-----------------------------66666666-55555555---------|
D|-88888888----------66666666-88888888--88888888------------------88888888-|
A|-------------------------------------------------------------------------|
E|-------------------------------------------------------------------------| } X2

E|---------------------------------|
B|---------------------------------|
G|-33-3333---------66-6666---------|
D|-33-3333-44-4444-66-6666-66-6666-|
A|-11-1111-44-4444-44-4444-66-6666-|
E|---------22-2222---------44-4444-| } X2

E|------------------------------------------------| E--------------|
B|-----2-2h4p2-1--1--2-2--1--2-2--1--2-2--1--22-4-| B-1-1-2--1-1-2-|
G|---3-------------3--3-3--1--1-1--3--3-3--1------| G-3-3-3--1-1-1-|
D|------------------------------------------------| D--------------|
A|-1----------------------------------------------| A--------------|
E|------------------------------------------------| E--------------| } X2

E|----------------------------------------|
B|----------------------------------------|
G|-3-3-66666-----66666-3-3-66666-----6----|
D|-3-3-66666-4-4-66666-3-3-66666-4-4-6-66-|
A|-1-1-44444-4-4-44444-1-1-44444-4-4-4-66-|
E|-----------2-2-----------------2-2---44-| } X2

E|------------------|
B|------------------|
G|-3----------------|
D|-3--4--33333333-3-|
A|-1--4--33333333-3-|
E|----2--11111111-1-|

E|---------------------------------|
B|---------------------------------|
G|-33-3333---------66-6666---------|
D|-33-3333-44-4444-66-6666-66-6666-|
A|-11-1111-44-4444-44-4444-66-6666-|
E|---------22-2222---------44-4444-| } X2

E|-------------------------------------|
B|-------------------------------------|
G|-33333333----------66666666----------|
D|-33333333-44444444-66666666-66666666-|
A|-11111133-44444444-44444444-66666666-|
E|----------22222222----------44444444-| } X2

Ещё песни с аккордами исполнителя/группы «Afi»