Chief Uck
Aforafro
Aforafro Chief Uck
Добавлено: — , Просмотров: 228 (+0)

  Добавить в избранное

Chief Uck

Intro/verse.
      1   2   3   4     1   2   3   4         1   2   3   4
e || -----------------|---------------------|-----------9-999--|-
b || ---7---*-6---6-*-|---7---*-6-6-6---6---|---7---*-6-6-666*-|-
g ||.---7---*-6---6-*-|---7---*-6-6-7p6-7p6-|---7---*-6-6-666*-|-
d ||.---7---*-6---6-*-|---7---*-6-6-6---6---|---7---*-6-6-666*-|-
a || -9---------------|-9-------------------|-9----------------|-
e || -7---------------|-7-------------------|-7----------------|-

     1   2   3   4
e -|------------------- ||
b -|---7---*-6--------- ||
g -|---7---*-6-9-9-8-6-.||
d -|---7---*-6-6-6-6-6-.||
a -|-9----------------- ||
e -|-7----------------- ||

Pre-chorus:
e ---------------------------------|---------------------------------
b ---------------------------------|---------------------------------
g ---------------------------------|---------------------------------
d -7-6-5---5-------7-6-5---5-------|-7-6-5---5-------7-6-5---5---**8-
a -------7---7-6-5-------7---7-6~~~|-------7---7-6-5-------7---7-**6-
e----------------------------------|---------------------------------

Chorus:
                     pm                                X4
e|| --------------------------|------------------------------- ||
b|| --------------------------|------------------------------- ||
g||.--------------------------|-6--(6)/-18-18-*---------------.||
d||.-9---9--*-----------------|-5--(5)/-17-17-*---------------.||
a|| -7---7--*2--2-2--2-2-2222-|-4--(4)/-16-16-*-5--6--7--8--9- ||
e|| --------*0--0-0--0-0-0000-|-----------------3--4--5--6--7- ||
                                                              X4
e-------------------------|--------------- || ----------------- ||
b-------------------------|--------------- || ----------------- ||
g-------------------------|--------------- ||.-----------------.||
d-------------------------|--------------- ||.-----------------.||
a-*5--6--7--8--5--6--7--8-|-*5--6--7--8-9- || -5-5-6-6-7-7-8-9- ||
e-*3--4--5--6--3--4--5--6-|-*3--4--5--8-7- || -3-3-4-4-5-5-6-7- ||

2nd verse is same except everything's up one fret (semi-tone).

Chorus lyrics:
Chief Uck is a nasty man
he'll get on top of you whenever he can
no excuse no reason no foreplay
he'll give you everything, and then he'll take it away

Structure:
intro:  intro/verse riff X2
verse1: intro/verse riff X2
pre chorus
chorus
verse2: intro/verse riff X2
pre chorus
chorus

Ещё песни с аккордами исполнителя/группы «Aforafro»