To The Afterworld
Afterworld
AfterworldTo The Afterworld Прислать видеоурок
Afterworld To The Afterworld
Добавлено: — , Просмотров: 223 (+1)

  Добавить в избранное

To The Afterworld

Please note: This tab ain't no exact! And some parts are missing!!!
Tuned to: D#, G#, C#, F#, A#, D#
   Guitar 1.                                     Repeat once.
-|--------------------------------|--------------------------------|
-|--------------------------------|--------------------------------|
-|-9---9---9---9---9---9---9---9--|-5---5---5---5---7---7---12--11-|
-|-9---9---9---9---9---9---9---9--|-5---5---5---5---7---7---12--11-|
-|-7---7---7---7---7---7---7---7--|-3---3---3---3---5---5---10--9--|
-|--------------------------------|--------------------------------|
 | PM  .   .   .   .   .   .   .    .   .   .   .   .   .   .   .  |
 |                                                                 |
 | Guitar 2.                                                       |
-|--------------------------------|--------------------------------|
-|--------------------------------|--------------------------------|
-|-9---9---9---9---9---9---9---9--|-5---5---5---5---7---7---12--11-|
-|-9---9---9---9---9---9---9---9--|-5---5---5---5---7---7---12--11-|
-|-7---7---7---7---7---7---7---7--|-3---3---3---3---5---5---10--9--|
-|--------------------------------|--------------------------------|
   PM  .   .   .   .   .   .   .    .   .   .   .   .   .   .   .
   Guitar 1.                                     Repeat 3 times
-|--------------------------------|--------------------------------|
-|--------------------------------|--------------------------------|
-|--------------------------------|---------5-----------7----------|
-|--------------------------------|-------5-----------7------------|
-|---10----9-----7---9---5---7----|-3-3-3-------5-5-5--------------|
-|-0-----0-----0---0-------0------|--------------------------------|
 | PM    .     .   .       .        . . . . .   . . . . .          |
 |                                                                 |
 | Guitar 2.                                                       |
-|--------------------------------|--------------------------------|
-|--------------------------------|--------------------------------|
-|-9------------------------------|-5-----------7------------------|
-|-9------------------------------|-5-----------7------------------|
-|-7------------------------------|-3-----------5------------------|
-|--------------------------------|--------------------------------|
   Guitar 1.
-|--------------------------------|--------------------------------|
-|--------------------------------|--------------------------------|
-|--------------------------------|--------------------------------|
-|-10----9-------10----9--9--9----|-3-----2-------3---2--2--2---2--|
-|-----------7-7----------------7-|-----------3-3---3-----------3--|
-|--------------------------------|--------------------------------|
 |         PM.         .  .     .             PM.   .       .   .  |
 |                                                                 |
 | Guitar 2.                                                       |
-|--------------------------------|--------------------------------|
-|--------------------------------|--------------------------------|
-|--------------------------------|--------------------------------|
-|-9---9-9---9-9-9-9-9---9-9---9--|-5---5-5---5-5-5-5-5---3-5---5--|
-|-7---7-7---7-7-7-7-7---7-7---7--|-3---3-3---3-3-3-3-3---3-3---3--|
-|--------------------------------|--------------------------------|
       PM    PM. . .     .     .        PM    PM. . .     .     .